E-Chords
Pillows

Hybrid Rainbow(Chords)

Pillows

Key: C
                            

Intro (Clean):----------------------------------------------------------------->> 
   G                 C                 D                 G 
E|-----------------|-5---7-----------|---------/10:----|-----------------| 
B|-------------8---|-------8---------|-7h8p7-5---------|-----------------| 
G|---------7-------|-----------7h9p7-|-----------------|-----------------| 
D|-------5---------|-----------------|-----------------|-----------------| 
A|-----------------|-----------------|-----------------|-----------------| 
E|-----------------|-----------------|-----------------|-----------------| 
   1 + 2 + 3 + 4 +   1 + 2 + 3 + 4 +   1 + 2 + 3 + 4 +   1 + 2 + 3 + 4 + 

   G                 C                 D                 G 
E|-----------------|-5---7-----------|-----------------|-----------------| 
B|-------------8---|-------8---------|-7h8p7-5---------|-----------------| 
G|---------7-------|-----------7h9p7-|---------7---4:--|-----------------| 
D|-------5---------|-----------------|-----------------|-----------------| 
A|-----------------|-----------------|-----------------|-----------------| 
E|-----------------|-----------------|-----------------|-----------------| 
   1 + 2 + 3 + 4 +   1 + 2 + 3 + 4 +   1 + 2 + 3 + 4 +   1 + 2 + 3 + 4 + 
Verse 1 (Clean):--------------------------------------------------------------->> G C D G Ho tondo shizun deru mitai na mujin to C D G Chikyuu gini notte nai, namae mo nai C D G Kinou wa chikaku made, kibou no fune ga kita kedo C D G Bokura o mukae ni kitan jyanai Pre-Chorus (Clean):------------------------------------------------------------>> C Taiyou ni G mitou* rete Am Em sukoshi kogeta C PURISIM o G hasan de D Dsus4 te o futta kedo Chorus (Dist.):---------------------------------------------------------------->> C G Can you feel? Am Em Can you feel that hybrid rainbow? C G D C Kinou made eraba rena katta bokura demo (Clean) G Ashita o matte ru
Pre-Verse (Clean):------------------------------------------------------------->> 
   G                 C                 D                 G 
E|-----------------|-5---7-----------|---------/10:----|-----------------| 
B|-------------8---|-------8---------|-7h8p7-5---------|-----------------| 
G|---------7-------|-----------7h9p7-|-----------------|-----------------| 
D|-------5---------|-----------------|-----------------|-----------------| 
A|-----------------|-----------------|-----------------|-----------------| 
E|-----------------|-----------------|-----------------|-----------------| 
   1 + 2 + 3 + 4 +   1 + 2 + 3 + 4 +   1 + 2 + 3 + 4 +   1 + 2 + 3 + 4 + 

   G                 C                 D                 G 
E|-----------------|-5---7-----------|-----------------|-----------------| 
B|-------------8---|-------8---------|-7h8p7-5---------|-----------------| 
G|---------7-------|-----------7h9p7-|---------7---4:--|-----------------| 
D|-------5---------|-----------------|-----------------|-----------------| 
A|-----------------|-----------------|-----------------|-----------------| 
E|-----------------|-----------------|-----------------|-----------------| 
   1 + 2 + 3 + 4 +   1 + 2 + 3 + 4 +   1 + 2 + 3 + 4 +   1 + 2 + 3 + 4 + 
Verse 2 (Clean):--------------------------------------------------------------->> Bridge/Solo (Dist.)------------------------------------------------------------>> G (2 Bars) C C D G Ho tondo shibon deru bokura no hikousen C D G Chimen o SURE SURE ni ukan deru Pre-Chorus (Clean):------------------------------------------------------------>> C G Yobi kata mo tomadou Am Em iro no sugata C Tori tachi ni G yousha naku D Dsus4 tsutsukareru darou Chorus (Dist.):---------------------------------------------------------------->> C G Can you feel? Am Em Can you feel that hybrid rainbow? C G Kitto made D C Genkai nante konna mon jyanai (Clean) G Konnan jyanai
              G 
E|-----------------|-----------------|-----------------|-----------------| 
B|-----------------|-5-----8-----7---|-10----8:\-------|-----------------| 
G|-4-----5-----7---|-----------------|-----------------|-----------------| 
D|-----------------|-----------------|-----------------|-----------------| 
A|-----------------|-----------------|-----------------|-----------------| 
E|-----------------|-----------------|-----------------|-----------------| 
   1 + 2 + 3 + 4 +   1 + 2 + 3 + 4 +   1 + 2 + 3 + 4 +   1 + 2 + 3 + 4 + 

   C                                   G 
E|-----------------|-----------------|-----------------|-7-----7-----7---| 
B|-----------------|-5-----8-----7---|-10----8-----7---|-----------------| 
G|-4-----5-----7---|-----------------|-----------------|-----7-----7-----| 
D|-----------------|-----------------|-----------------|-----------------| 
A|-----------------|-----------------|-----------------|-----------------| 
E|-----------------|-----------------|-----------------|-----------------| 
   1 + 2 + 3 + 4 +   1 + 2 + 3 + 4 +   1 + 2 + 3 + 4 +   1 + 2 + 3 + 4 + 

   C                                   G 
E|-8-----7---------|-8-----7---------|-----------------|-----------------| 
B|-----------8-----|-----------8-----|---------5-------|-7-------8-------| 
G|-----------------|-----------------|-7---------------|-----------------| 
D|-----------------|-----------------|-----------------|-----------------| 
A|-----------------|-----------------|-----------------|-----------------| 
E|-----------------|-----------------|-----------------|-----------------| 
   1 + 2 + 3 + 4 +   1 + 2 + 3 + 4 +   1 + 2 + 3 + 4 +   1 + 2 + 3 + 4 + 

   C                                   G 
E|-8-----7---------|-8-----7---------|-----------------|-10:-------------| 
B|-----------8-----|-----------8:----------------------|-----------------| 
G|-----------------|-----------------|-----------------|-----------------| 
D|-----------------|-----------------|-----------------|-----------------| 
A|-----------------|-----------------|-----------------|-----------------| 
E|-----------------|-----------------|-----------------|-----------------| 
   1 + 2 + 3 + 4 +   1 + 2 + 3 + 4 +   1 + 2 + 3 + 4 +   1 + 2 + 3 + 4 + 
Chorus (Dist.):---------------------------------------------------------------->> C G Can you feel? Am Em Can you feel that hybrid rainbow? C G Koko wa Am Em tojuu nandatte shinjitai C G I can feel. Am Em I can feel that hybrid rainbow. C G Kinou made D C eraba rena katta bokura demo G Ashita o matte ru

roll up this ad to continue

share this page

See Also: