E-Chords
Pierce Brothers

Audacity(Chords)

Pierce Brothers

roll up this ad to continue

Key: D
verse 1 
Verse Riff (D) 
E--------------------------------------------------| 
B--------------------------------------------------| 
G----------------2----------------------2----------| 
D------4--2-4-5----------------4--2-4-5------------| 
A--------------------------------------------------| 
E--------------------------------------------------| 

E--------------------------------------------------| 
B--------------------------------------------------| 
G----------------2----------------------2----------| 
D------4--2-4-5----5-4-0-------4--2-4-5------------| 
A--------------------------------------------------| 
E--------------------------------------------------| 
You broke the dotted line Stumbled in your time when you took over And advertised the fact of ignorance intact in your range rover So jump and you will see Whatever hearts that beat were so well over Roll away your stone And realise that your home lies on your shoulders
D G Your audacity Your audacity
verse 2 Verse Riff You're brought down on your knees By ignorance and greed and so dispose you Your hate that lights the flame Beneath the copper plate that has exposed you PreChorus A G You know where I want to be I wanna put you on tv Where the whole world then can see
D G Your audacity Your audacity
Instrumental break verse 3 Verse Riff You gave them all the blame You're the one to shame here you're broken Take your listeners game Wait to your parade and it's outspoken So jump and you will see Whatever hearts that beat are so well over Roll away your stone Realise that your home lies on your shoulder PreChorus A G So smile all you like but you don't realise Your children grow up blind when they should see Chorus Your audacity Your audacity Your audacity Your audacity
share this page

See Also: