E-Chords
Phantom Posse

The Road Is My Home(Chords)

Phantom Posse

roll up this ad to continue

Key: Dm
    Dm        Em       Am 
e|---------------------------------------------------------------------------| 
B|---10-------8--------5-----------------------------------------------------| 
G|---10-------9--------5-----------------------------------------------------| 
D|---12-------9--------7-----------------------------------------------------| 
A|---12-------7--------7-----------------------------------------------------| 
E|---------------------------------------------------------------------------| 

Background riff: 

e|----8------10-7-7-7-8-15-12-7-12-10----------------------------------------| 
B|------10-8-----------------------------------------------------------------| 
G|--9------------------------------------------------------------------------| 
D|---------------------------------------------------------------------------| 
A|---------------------------------------------------------------------------| 
E|---------------------------------------------------------------------------| 
Dm Em Am 2x Dm Em Am I've been all alone Dm Em Am Walking around, searching for a new home Dm Em Am And I, no, I don't mind Dm Em Am Being alone in the night Dm Em Am Now we, now we'll never be Dm Em Am Cause you never want to leave with me Dm Em Am And so I'm gone, gone, gone, gone Dm Em Am On the road, the road is my home Dm Em Am And now I'm gone, gone, gone, gone Dm Em Am On the road, the road is my home Dm Em Am Now I, now I don't mind Dm Em Am Being in the dark, driving at night Dm Em Am I, I really like Dm Em Am Seeing the stars in my life Dm Em Now we could never be Am Cause you never want to leave with me Dm Em Am And I don't want to stay around in your town Dm Em Am And so I'm gone, gone, gone, gone Dm Em Am On the road, the road is my home Dm Em Am And now I'm gone, gone, gone, gone Dm Em Am On the road, the road is my home Guitar Break (just background riff 2x) Dm Em Am I've been seeing all these things that I've never Dm Em Am Seen in the daytime at home Dm Em Am And I'm leaving, never coming back Dm Em Am Not any new seasons, winter or fall Dm Em Am And so I'm gone, gone, gone, gone Dm Em Am On the road, the road is my home Dm Em Am And now I'm gone, gone, gone, gone Dm Em Am On the road, the road is my home Background riff 4x
share this page

See Also: