E-Chords
Phantom Posse

She Gets Lonely(Chords)

Phantom Posse

roll up this ad to continue

Key: Fm
Tuning: Standard 

     Fm   Eb   Cm   Db 
e|---------------------------------------------------------------------------| 
B|---9----8------------------------------------------------------------------| 
G|---10---8----8----10-------------------------------------------------------| 
D|---10---8----10---11-------------------------------------------------------| 
A|---8----6----10---11-------------------------------------------------------| 
E|-------------8----9--------------------------------------------------------| 
Cm Db Fm Eb Cm Db Fm Eb She said she gets lonely Cm Db And that's why she calls Fm Eb She says that I'm the only one Cm Db That understands at all Fm Eb She said she gets lonely Cm Db And that's why she calls Fm Eb She says that I'm the only one Cm Db That understands at all Fm Eb She been through so much these past few years Cm Db These broken hearts and fighting tears Fm Eb Cm Db Breathing through her little soul Fm Eb She says she's looking for a lover Cm Db Someone to come home and love her Fm Eb Cm Db I might just treat you right Fm Eb She said she gets lonely Cm Db And that's why she calls Fm Eb She says that I'm the only one Cm Db That understands at all Fm Eb She said she gets lonely Cm Db And that's why she calls Fm Eb She says that I'm the only one Cm Db That understands at all Fm Eb We've been through so much these past few months Cm Db Leaving you for another one Fm Eb Cm Db Girls keep calling every night Fm Eb But I've been looking for a lover Cm Db A girl so I could love her Fm Eb Cm Db I might just treat you right Fm Eb She said she gets lonely Cm Db And that's why she calls Fm Eb She says that I'm the only one Cm Db That understands at all Fm Eb She said she gets lonely Cm Db And that's why she calls Fm Eb She says that I'm the only one Cm Db That understands at all Fm Eb She been through so much these past few years Cm Db Broken hearts and fighting tears Fm Eb Cm Db People walking out her life
Fm Eb Cm Db 2x (over quick soloish thing) 

e|---------------------------------------------------------------------------| 
B|-------9-8------11-11-11-11-11---------------------------------------------| 
G|--8-10----------------------------8-10-------------------------------------| 
D|---------------------------------------------------------------------------| 
A|---------------------------------------------------------------------------| 
E|---------------------------------------------------------------------------|
share this page

See Also: