E-Chords
Pete Doherty

You're My Waterloo (acoustic)(Chords)

Pete Doherty

roll up this ad to continue

Key: C
Intro 

-0---0h1-3-1-0-------0----------------------------1-----0--| 
-1-------------3-1-3---3-1----0-0--0h1----0-------1-----0--| 
-0--------------------------------------2---------2-----1--| 
-2---------------------------------------------------------| 
-3---------------------------------------------3-----2-----| 
-x---------------------------------------------1-----0-----| 

-0---0h1-3-1-0-3-3/5-5/7-7/8---7-7--7h8-5---5-5/1---1---1-----0---| 
-1--------------------------------------------------1---1-----0---| 
-0--------------------------------------------------2---2-----0---| 
-2------------------------------------------------3---3---2-------| 
-3----------------------------------------------------------------| 
-x----------------------------------------------------------------| 
C E You'll never fumigate the demons Am F E No matter how much you smoke C just say you love me E For three good reasons Am F E And I'll throw you the rope don't need it C E you are the survivor Am F E Of more than one life C E you're the only lover I had Am F E Who ever slept with a knife C E Am But you're not Judy Garland Oh Just like me F E you've never really had a home C E Ohh I'm not Tony Hancock baby Am Until the dawn F E F E We'll stone the crows stone the crows A A
-0---------------------------0----------------1--1----0--| 
-2---2-3-2-3-3/5-5/7---5-5---2---2-3-2-3-3/5--1--1----0--| 
-2---------------------------2----------------2--2----1--| 
-2---------------------------2-------------------3-------| 
-0---------------------------0-------------------3--2----| 
-x---------------------------x-------------------0--0----| 
C E And you see I've brought you flowers Am F E I've brought you flowers all collected from the Old Vic Stage C E Well I've been sitting here for hour's baby Am F E Just chasing these words across the page C E you're my Waterloo Am F E I'll be your Gypsy Lane C E I'm so glad we know just what to do Am F E And exactly who's to blame C E you're my Waterloo Am F E I'll be your Stanley Park C E I'm so glad we know just what to do Am And no ones left F E Stumbling around F E Fumbling around F E Tumbling around A
-0--------------------------------0--| 
-2---2-3-2-3-3/5-5/7---5-5--5-3-2-2--| 
-2--------------------------------2--| 
-2--------------------------------2--| 
-0--------------------------------0--| 
-x--------------------------------x--|
share this page

See Also: