E-Chords
Pete Doherty

Arcady(Chords)

Pete Doherty

roll up this ad to continue

Key: G
Tom: G   
Tuning: Normal 
                             Cm 
e | -0--------------------------3------------------------------------------------ |  
B | ----3b0---------------------0------------------------------------------------ |  
G | ----------0---3b0-----------3------------------------------------------------ |  
D | ----------------------------2------------------------------------------------ |  
A | ----------------------------3------------------------------------------------ |  
E | ----------------------------0------------------------------------------------ |  
   G   D  Cm 
e | -3---3--3-- |  
B | -3---3--0-- |  
G | -4---5--3-- |  
 | -5---5--2-- |  
A | -5---3--3-- |  
E | -3---3--0-- |  
G D G In Arcady, your life trips along G D G It's pure and simple as the shepherd's song Cm Seraphic pipes along the way in Arcady G D In Arcady Never saw I such a scene Such maids upon such a molten green They employ their holiday with dance and game And things I may never name In Arcady G Cm You said he was your teacher G Taught you so true and so wise Cm But now you know more than your teacher D I see nothing but cool self-regard in your eyes In Arcady So you see how twisted it becomes See how quickly twisted it becomes When the cat gut binds my ankles to your bedstead That ain't love, no that ain't love Said he was your teacher Taught you so true and so wise Now you know more than your teacher I see nothing but cool self-regard in your eyes In Arcady, your life trips along Pure and simple as the shepherd's song
share this page

See Also: