E-Chords
Perro Indio

El Recuerdo(Chords)

Perro Indio

roll up this ad to continue

Key: D#m
Intro Arpegio: 

                                             D#m5 
E|--13------13--12----------10-------------------------- 
B|------10----------10----------10------13------13--11-- 
G|----------------------10----------10------10------10-- 
D|--------------------------------------------------12-- 
A|------------------------------------------------------ 
E|------------------------------------------------------ 

       F/C                               C 
E|-------------------------------------------------- 
B|--11-10---10--10--11--13--13--13--13--11--10--8--- 
G|-----10---10--10--10--10--10--10--10--10--10--9--- 
D|-----10---10--10--10--10--10--10--10--10--10--10-- 
A|----------------------------------------------10-- 
E|----------------------------------------------10-- 


Intro Acordes (Entre parentesis las notas de paso opcionales): 


D5  (C5) B5 (A5) F5  (B5) C5  (C#5) D5 



D5                            (C5) B5 
El viento atraveso la puerta, otra vez. 


(A5)F5                     (B5) C5 
Y trajo bien guardado ahi,el recuerdo 


(C#5)D5                           (C5) B5 
Para que fui a envenenarme tanto, para que 


(A5) F5                             (B5) C5 
Si las noches siguen siendo noches, sigo siendo aquel 


(C#5) D5                           (C5) B5 
Tiempo que en el olvido queda, Pero duele 


(A5) F5                    (B5) C5 
Todo eso, que se va, A veces no vuelve 


(C#5) D5                      (C5) B5 
Palabras que llevare conmigo Para siempre 


(A5) F5                    (B5) C5 
A quien no me dejo caer, ni dejo que lo intente 


                Intro Arpegio X 2 


D5                       D5   B5 
Se lo que es el frio tambien, se lo que es el hambre 


(A5) F5                                       (B5) C5 
Y se lo que es estar mal herido y volver a levantarme 


(C#5) D5                         (C5) B5 
Por eso es que me cuesta tanto, andar al sol 


(A5) F5                        (B5) C5 
Espero la madrugada y canto mi cancion 


(C#5) D5                       (C5) B5 
Lejos tantas veces me fui, con mi guitarra 


(A5) F5                        (B5) C5 
Queria contarle al viento, lo que pensaba 


(C#5) D5                       (C5) B5 
El hombre corre por correr Para ganarle al tiempo 


(A5) F5                        (B5) C5 
Y asi pasa de largo, todos los momentos. 


Final: 
 Intro Arpegio / Solo /  Intro Arpegio / Intro Acordes 
share this page

See Also: