E-Chords
Pedro e Thiago

Pra Onde Você For(Chords)

Pedro e Thiago

roll up this ad to continue

Key: D
Intro.: D6/9  A4  Bm  G 

Utilize este dedilhado por toda a música, menos no refrão e na ponte. 

     D6/9             A4                Bm7                G   
 
e --------------------------------------------------------------------------  
B ------------3-----------------3-----------------3-----------3-----3-------  
G ------2---2---2---------2---2---2---------2---2---2-----------0-----0-----  
D ----4---4-------4-----2---2-------2-----4---4-------4-----0-----0-----0---  
A --5-----------------3-----------------2------- 
----------------------------  
E --------------------------------------------------------3----------------- 
De noite eu penso Quem estará no meu lugar Pra te dar carinho fazer brilhar (...o seu olhar)
 
 --5-----------  
 -----5--3--3--  
 -----------2--  
 -----------4--  
 -----------5--  
 --------------  
Quando a chuva cai do céu Quando choro de paixão Eu me lembro de você Longe do meu coração
D5 A5 Se eu fosse um anjo B5 G5 pra ir aonde você for D5 A5 Se eu fosse seu amor B5 G5 pra ir aonde você for
Talvez eu descubra Esse caminho outra vez Te dava pra sempre O amor que eu tinha e não te dei ===dedilhado Quando a chuva cai do céu Quando choro de paixão Eu me lembro que você deixou Vaziu meu coração ---------- Refrão  (D5 A5 B5 G5 ) batida ---------- Ponte: Bm G A Sem você não vai dar (F#) Bm sem você eu não vou G A sem você meu amor eu ando sozinho a vida insiste em prosseguir eu pensei, eu sonhei que você nunca vai partir ---------- Refrão 4x ----------
share this page

See Also: