E-Chords
Paulo Vítor e Guilherme

Medalha De Honra(Chords)

Paulo Vítor e Guilherme

roll up this ad to continue

Key: B
Intro A9 E7 F#m D9 

Solo 

E|------------------------------| 
B|------------------------------| 
G|------------------------------| 
D|--1/2-22222-----4p6-4---------| 
A|------------222---------------| 
E|------------------------------| 

E|------------------------------| 
B|------------------------------| 
G|--0p1-11111-----2p4-2---------| 
D|------------222---------------| 
A|------------------------------| 
E|------------------------------| 

E|-------------------12h--------| 
B|-----------------------12h----| 
G|-------1-1/2-2-1--------------| 
D|--4444-----------4------------| 
A|------------------------------| 
E|------------------------------| 
A9 Pensei E7 Que não seria fácil me apaixonar Perdi F#m A guerra do amor antes de começar Levei D9 Tudo na brincadeira sem me preocupar Pré-Refrão A9 E7 Não queria me envolver, mais já fui baleado F#m Acerto no coração nem tava preparado D9 Na sua roda de amigos já to conhecido Tão me chamando agora A9 E7 De soldado Abatido oooooo
A9 E7 Falta coragem pra dizer que to apaixonado F#m Não é de hoje que eu quero você do meu lado D9 Escondi por muito tempo esse meu sentimento A9 Fica difícil sem te ver, acho que não aguento A9 E7 Falta coragem pra dizer que to apaixonado F#m Não é de hoje que eu quero você do meu lado D9 Escondi por muito tempo esse meu sentimento A9 E7 Fica difícil, acho que não aguento oooooooooo
Intro F#m D9

Pre-Chorus

A9 E7 Não queria me envolve, mais já fui baleado F#m Acerto no coração nem tava preparado D9 Na sua roda de amigos já to conhecido Tao me chamando agora A9 E7 De soldado Abatido oooooooo
A9 E7 Falta coragem pra dizer que to apaixonado F#m Não é de hoje que eu quero você do meu lado D9 Escondi por muito tempo esse meu sentimento A9 Fica difícil sem te ver, acho que não aguento A9 E7 Falta coragem pra dizer que to apaixonado F#m Não é de hoje que eu quero você do meu lado D9 Escondi por muito tempo esse meu sentimento A9 Fica difícil, acho que não aguento Bm F#m Descobri o que é amor ao encontrar você A9 Pra terminar vou resumir, pra você entender E7 Parabéns D9 E7 A9 Medalha de Honra Pra Você A9 E7 Falta coragem pra dizer que to apaixonado F#m Não é de hoje que eu quero você do meu lado D9 Escondi por muito tempo esse meu sentimento A9 E7 F#m D9 Fica difícil, acho que não aguento oooooooooo E7 A9 Medalha de Honra Pra Você !
share this page

See Also: