E-Chords
Paulo Nazareth

Sem Medo De Ir(Chords)

Paulo Nazareth

Key: D
Intro: D  D/B  D  D/B  D  D/B  D/C#  D/B 

Verse 1:

D D/B Tudo tão do jeito que eu queria Ou quase lá D D/B Quando olho a minha vida D D/B Quem vai me dizer que não é bem assim D/C# D/B Como é, então? Me diz D E mesmo que seja o caso D/B D D/B De encarar os dias sem sol D Do meu lado, o seu lugar D/B D/C# D/B O meu lugar, do seu lado D E, por sinal, já faz tempo D/B Que eu não me sentia assim D D/B Sem medo de ir D D/B Até onde for eu vou e volto D/C# D/B Cheio de saudade D D/B E até as luzes da cidade D/A D/G Se acenderam no fim da tarde D/A D/B Pra iluminar até o fim da rua D/C# D/A G Por onde vou com você
Dedilhado - Refrão 

Parte 1 De 4 
          D 
E|--------------------------------| 
B|--------------------------------| 
G|---------------2----------------| 
D|----0----------------1----------| 
A|-------------4------------------| 
E|--------------------------------| 

Parte 2 De 4 

           D 
E|--------------------------------| 
B|--------------------------------| 
G|--------------------------------| 
D|----4-----0-----2---------------| 
A|----------------------2---------| 
E|--------------------------------| 

Parte 3 De 4 

          D 
E|--------------------------------| 
B|--------------------------------| 
G|---------------2----------------| 
D|----0----------------1----------| 
A|-------------4------------------| 
E|--------------------------------| 

Parte 4 De 4 

      D 
E|--------------------------------| 
B|--------------------------------| 
G|--------------------------------| 
D|----4-----0-----2---------------| 
A|----------------------4---------| 
E|--------------------------------| 
F#7 Outras histórias virão Bm7 Nada na vida é em vão E7 G Quando chorar não esqueça, meu bem A#º Não deixa o tempo apagar Bm7 Tudo de bom entre nós E7 G Pra cultivar o que for de verdade F#7 Outras histórias virão Bm7 Nada na vida é em vão E7 G Quando chorar não esqueça, meu bem A#º Não deixa o tempo apagar Bm7 Tudo de bom entre nós E7 Pra cultivar nosso amor

Verse 1:

D D/B Tudo tão do jeito que eu queria Ou quase lá D D/B Quando olho a minha vida D D/B Quem vai me dizer que não é bem assim D/C# D/B Como é, então? Me diz D E mesmo que seja o caso D/B D D/B De encarar os dias sem sol D Do meu lado, o seu lugar D/B D/C# D/B O meu lugar, do seu lado D E, por sinal, já faz tempo D/B Que eu não me sentia assim D D/B Sem medo de ir D D/B Até onde for eu vou e volto D/C# D/B Cheio de saudade D D/B E até as luzes da cidade D/A D/G Se acenderam no fim da tarde D/A D/B Pra iluminar até o fim da rua D/C# D/A G Por onde vou com você
F#7 Outras histórias virão Bm7 Nada na vida é em vão E7 G Quando chorar não esqueça, meu bem A#º Não deixa o tempo apagar Bm7 Tudo de bom entre nós E7 G Pra cultivar o que for de verdade F#7 Outras histórias virão Bm7 Nada na vida é em vão E7 G Quando chorar não esqueça, meu bem A#º Não deixa o tempo apagar Bm7 Tudo de bom entre nós E7 Pra cultivar nosso amor
Final: D D/B D/C#

roll up this ad to continue

share this page

See Also: