E-Chords
Pasteles Verdes

Recuerdos de una noche(Chords)

Pasteles Verdes

Key: D
INTRO 
 
B-------------------------------- 
e--3-3---3-3-3-1-0-1-3-3---5-3--- 
 
 
B-------------------------------- 
e--3-3-1---1-1-1-0-1-0----------- 
 
 
B--3-3--------------------------- 
e------0-1-3-0-3-3--------------- 
 
 
B-------------------------------- 
e--3-3-3-3-5-7-7---8-7---8-7-8-8- 
 
 
B-------------------------------- 
e--8-8-8-8-12-10-8-10------------ 
 
 
B-------------------------------- 
e--3-3---3-3-3-1-0-1-3-3---------
D Am Quiero recordar esta noche F G momentos que no volveran D Am y hacer de quellos poemas F G tristes como una oracion D Am una oracion que tiene mucho amor F G como el que yo... te tuve alguna vez D Am tanto amor, tanto amor que no puedo F G porque ya... no estas aqui... Coro: D Am junto a mi... como ayer en mis brazos F G mirando al cielo, la oscuridad D Am junto a mi... como ayer en mis brazos F G momentos que no volveran... Dm F G C y yo aqui... recordando tu amor...

roll up this ad to continue

share this page

See Also: