E-Chords
Passafire

Dimming Sky(Chords)

Passafire

roll up this ad to continue

Key: Am
INTRO 

e|--8--8--10---8-----8--10---8-----8--10---8-----8--X---| 
B|--8--8---8---8-----8---8---8-----8---8---8-----8--X---| 
G|--9--9---9---9-----9---9---9-----9---9---9-----9--X---| 
D|-10-10--10--10----10--10--10----10--10--10----10--X---| 
A|------------------------------------------------------| 
E|------------------------------------------------------| 

e|-12--8--10---8-----8--10---8-----8--10---8-----8--X---| 
B|--8--8---8---8-----8---8---8-----8---8---8-----8--X---| 
G|--9--9---9---9-----9---9---9-----9---9---9-----9--X---| 
D|-10-10--10--10----10--10--10----10--10--10----10--X---| 
A|------------------------------------------------------| 
E|------------------------------------------------------| 

Am F C I wanna jump on a train, Dm F C Take me out of the same old thing Am F C I wanna feel no pain, Dm F C Take me south further down, take me south further down Am F C I wanna jump in a lake, Dm F C Take me out to an old blue spring, Am F C I wanna swim in a cave, Dm F C Let the water cool me down, let the water cool me down
F C F All the fish go swimming by they say goodnight F C Dm G And I wish the dimming sky would stay so bright
Am F C I wanna hop on a plane Dm F C To any place where the tires swing Am F C I wanna home on the range Dm F C Just to keep me on the ground, just to keep me on the ground Am F C I wanna drive in the rain Dm F C Or in the sun it's all the same Am F C I wanna step on the breaks Dm F C Hope the lead will slow me down, hope the lead will slow me down
F C F While the trucks go speeding past I'm going awful fast F C Dm G Don't have a million bucks for gas so Ill make it last F C F All the clouds go floating by big, round, and white F C Dm G And I wish the dimming sky would stay so bright
Bridge: C Am C B G A F#/D G Em Am F C I wanna walk through the store Dm F C Buy me something that I can't afford Am F C Make a bed on the floor Dm F C With the blankets that I found, with the blankets that I found Am F C Ill awake in the street Dm F C Reminiscing on a hazy dream Am F C wonder if I'm asleep Dm F C Let the water wake me up, let the water wake me up (Repeat intro)
share this page

See Also: