E-Chords
Paramore

Brick By Boring Brick(Chords)

Paramore

Watch the video lesson
Key: F#m
(versão acústica)   

(intro 2x) F#m - C#m - D -  A   

(verse)   
F#5           C#5  D5   
She lives in a fairy tale   
A5   
Somewhere too far for us to find   
F#5           C#5      D5   
Forgotten the taste and smell   
A   
Of the world that she's left behind   
F#m       C#m  D5   A            A   
It's all about the exposure the lens I told her   
F#m             C#m D5   
The angles were all wrong now   
A   
She's ripping wings off of butterflies   

(refrain)   
E                    E      F#m  D   
With her feet on the ground   
E                    E      F#m E/G#   
And her head in the clouds   

(Chorus 2x) A Well go get your shovel C#m And we'll dig a deep hole F#m E To bury the castle, bury the castle
Ba da ba da ba ( F#5 C#5 D A ) ( F#m C#m D A ) (verse) F#5 C#5 D5 So one day he found her crying A5 Coiled up on the dirty ground F#5 C#5 D5 Her prince finally came to save her A And the rest you can figure out F#m C#m D5 But it was a trick A A And the clock struck twelve F#m C#m D5 Well make sure to build your house brick by boring brick A Or the wolves gonna blow it down (Refrain) E E F#m D With her feet on the ground E E F#m E/G# And her head in the clouds (Chorus) A Well go get your shovel C#m And we'll dig a deep hole F#m E To bury the castle, bury the castle (interlude 2x) F#m - D - A - E (bridge) F#m Well you built up a world of magic D Because your real life is tragic A E Yeah you built up a world of magic A If it's not real C#m You can't see it with your eyes F#m You can't feel it with your heart E And I won't believe it A Cause if it's true C#m You can see it with your eyes F#m Even in the dark E And that's where I want to be, yeah
A Go get your shovel C#m And we'll dig a deep hole F#m E To bury the castle, bury the castle Ba da ba da ba...
(intro)   

(Josh)   
|-0---------------0--------------0--------------0---------|   
|-0---------------0--------------0--------------0---------|   
|-11--(4x)--------11---(2x)------11--(2x)-------9---(8x)--|   
|-11--------------11-------------11-------------11--------|   
|-9---------------------------------------------0---------|   
|-----------------9--------------10-----------------------|   

(Taylor's part)   

0:12   
|----------------------------------|   
|----------7~---5~-----------------|   
|-------4~---------6~----6^r~------|2x   
|-2/4------------------------------|   
|----------------------------------|   
|----------------------------------|   

(verse)   
0:36   
|----------------------------------|   
|----------7~---5~-----------------|   
|------------------6~----6^r~------|2x   
|-2/4------------------------------|   
|----------------------------------|   
|----------------------------------|   

(refrain)   
0:46   
|---------------------------------------------------------|   
|---------------------------------------------------------|   
|---------------------------------------------------------|   
|--9~----(9~)----11~------7~-----6~----(6)----7~----9~----|   
|---------------------------------------------------------|   
|---------------------------------------------------------|   

(Chorus 2x)   
1:00   
|--------------------------------------------------------|   
|------10-9-------------------------10-9~----------------|   
|-2/6--------9~---------------2/6------------------------|   
|--------------------------------------------------------|   
|--------------------------------------------------------|   
|--------------------------------------------------------|   
1:06   
|------0~-------------0~----------------------------------|   
|------0~-------------0~----------------------------------|   
|---------------------------------------------------------|   
|-7/6------6/7--76--------11~-/-9~---9/11--11-s--9~------|   
|---------------------------------------------------------|   
|---------------------------------------------------------|   

(then-Bass F# C# D A)   
1:27   
|---------------------------------------------------------|   
|---------------------------------------------------------|   
|-----------------11~-9~----------------------------------|   
|--11^r~------7~----------11~------11^r~------------------|   
|---------7/9---------------------------------------------|   
|---------------------------------------------------------|   

(verse / Chorus)   

(interlude)   
|--------------------------------------------------------------|   
|--------------------------------------------------------------|   
|-xx-111111-666-4444444444-xx-777-141414-13131313131313131313--|   
|-xx-----------------------xx----------------------------------|   
|-xx-9-9-9--444-2222222222-xx-555-121212-11111111111111111111--|   
|--------------------------------------------------------------|   

|--------------------------------------------------|   
|--------------------------------------------------|   
|-xx-99999999-1111111111111111-66666666-44444444---|   
|-xx-----------------------------------------------|   
|-xx-77777777-9-9-9-9-9-9-9-9--44444444-22222222---|   
|--------------------------------------------------|   

(bridge)   
|--------------------------------------------------------------|   
|--------------------------------------------------------------|   
|-xx-111111-666-4444-4-4-4-xx-777-141414-13131313131313131313--|   
|-xx-----------------------xx----------------------------------|   
|-xx-9-9-9--444-2222-2-2-2-xx-555-121212-11111111111111111111--|   
|--------------------------------------------------------------|   

|--------------------------------------------------|   
|--------------------------------------------------|   
|--xx999999999-9-9-9--66666666-44444444------------|   
|--------------------------------------------------|   
|--xx777777777-7-7-7--44444444-22222222------------|   
|--------------------------------------------------|   

3:10   
|---------------------------------------------------------|   
|-----------10-12--10-----9-10-------9~-------------------|   
|----9--9--------------9----------------------------------|   
|-11------------------------------------------------------|   
|---------------------------------------------------------|   
|---------------------------------------------------------|   

(Chorus)   

3:46   
|-0~------------------------------------------------------|   
|-0~------------------------------------------------------|   
|-0~------------------------------------------------------|   
|---------------------------------------------------------|   
|---------------------------------------------------------|   
|---------------------------------------------------------|   

4:06   
|---------------------------------------------------------|   
|---------------------------------------------------------|   
|---------------------------------------------------------|   
|-11r~---11r~----11r~---11r~-----11r~----11r~-----11r~----|   
|---------------------------------------------------------|   
|---------------------------------------------------------|

roll up this ad to continue

share this page

See Also: