E-Chords
Papá Changó

Bolerito De Sal(Chords)

Papá Changó

roll up this ad to continue

Key: G#m
Canción de Trovando Ando 
 
Intro 
e|--------4-6-7-6-4---4------------| 
B|------------------7---5----------| 
G|---------------------------------| 
D|---------------------------------| 
A|---------------------------------| 
E|---------------------------------| 

e|--------6-7-9-7-9-7-6------------| 
B|-----------------------8---------| 
G|---------------------------------| 
D|---------------------------------| 
A|---------------------------------| 
E|---------------------------------| 

e|--------6-7-9-11-11--------------| 
B|-----9---------------------------| 
G|---------------------------------| 
D|---------------------------------| 
A|---------------------------------| 
E|---------------------------------| 

e|-9-7-9-7-6-7-9-7-6-7-6-----------| 
B|-----------------------7-9-------| 
G|---------------------------------| 
D|---------------------------------| 
A|---------------------------------| 
E|---------------------------------| 
ACORDES
   G#m7   C#m7    F#7 
e|--x-------x------x---------------| 
B|--4-------5------2---------------| 
G|--4-------4------3---------------| 
D|--4-------2------2---------------| 
A|--x-------4------x---------------| 
E|--4-------x------2---------------| 
Ya no digas que me amabas G#m7 C#m7 Se que solo son palabras F#7 G#m7 Ya no retes al olvido G#m7 C#m7 Sabes queâ??elâ??hambre gana F#7 G#m7 Ya noâ??escribas en mi alma G#m7 C#m7 Vete y quítateâ??las ganas F#7 G#m7 Reconoce los recuerdos, sé que te darán consuelo (Oh,oh) G#m7 C#m7 F#7 Unâ?marineroâ?esâ?el corazón G#m7 C#m7 Se vaâ?a la marâ?en barco sin timón F#7 G#m7 Una sirena, le brindo su amor G#m7 C#m7 Amor de mar, amor con sal y Sol F#7 G#m7

Verse 1:

Sé que a veces haces falta G#m7 C#m7 Y me muero de las ganas F#7 G#m7 De meterme entre tu ombligo (Entre tu ombligo) G#m7 C#m7 Y acabar con esta farsa (Oh) F#7 G#m7 Ya no vio de mentiras (Umm) G#m7 C#m7 Ya no quiero que seas mía (No) F#7 G#m7 Puedes cambiarte de nombre (De nombre) G#m7 C#m7 Y fingir que nada escondes F#7 G#m7
Un marinero es el corazón G#m7 C#m7 Se va a la mar en barco sin timón F#7 G#m7 Una sirena, le brindo su amor G#m7 C#m7 Amor de mar, amor con sal y Sol F#7 G#m7

Verse 2:

yo te vi G#m7 C#m7 Y tú mirada sé quedo grabada F#7 G#m7 Es una historia que comienza así G#m7 C#m7 De otras personas que no ganan nada F#7 G#m7 Aun recuerdo cuando yo te vi G#m7 C#m7 Tú mirada sé quedo grabada en mí (Eh, eh; Uh,uh) F#7 G#m7 C#m7 F#7
Un marinero es el corazón G#m7 C#m7 Se va a la mar en barco sin timón F#7 G#m7 Una sirena, le brindo su amor G#m7 C#m7 Amor de mar, amor con sal y Sol F#7 G#m7
Outro (Oh, oh, oh, oh) G#m7 C#m7 Es una historia que comienza así F#7 G#m7 (Oh, oh, oh) G#m7 C#m7 Donde perdi mi amor F#7 G#m7 (Uh, uh) G#m7 C#m7 No, no F#7 G#m7 Como estas no puedo entender G#m7 G#m7 C#m7 F#7
share this page

See Also: