E-Chords
Palomazo Informativo

Skabstencionista(Chords)

Palomazo Informativo

Key: E
INTRO 

1|-12--12--12--12--12--12--12--12--12------------|E 
2|-12--12--12--12--12--12--12--12--12------------|B 
3|-13--13--13--13--13--13--13--13--13------------|G 
4|-----------------------------------------------|d 
5|-----------------------------------------------|a 
6|-----------------------------------------------|e 


1|-15--12-------------------------------|--------|E 
2|---------15-12------------------------|--------|B 
3|----------------15-14-12-----12-14----|----12--|G 
4|--------------------------14-------14-|-14-----|d 
5|--------------------------------------|--------|a 
6|--------------------------------------|--------|e 


1|----------------------------------|------------|E 
2|----12----12----12----12----12----|----12----12|B 
3|-14----14----14----14----14----14-|-13----13---|G 
4|----------------------------------|------------|d 
5|----------------------------------|------------|a 
6|----------------------------------|------------|e 


1|----------------------|------------------------|E 
2|----12----12----12----|-12----12----12---------|B 
3|-13----13----13----13-|----14----14----14------|G 
4|----------------------|------------------------|d 
5|----------------------|------------------------|a 
6|----------------------|------------------------|e 


1|-14-15-14--------------------------------------|E 
2|----------17-15-14-----------------------------|B 
3|-------------------16-14-12----12-14-12--------|G 
4|----------------------------14----------14-----|d 
5|-----------------------------------------------|a 
6|-----------------------------------------------|e 
E Hoy Me quede en la cama, no salí a votar Pues Todo me da hueva, todo me da igual A Me siento despreciado por la sociedad E El voto no es la vida, es pura vanidad B A A mí la democracia no me hace gracia E Pues los candidatos son una desgracia y? ESTRIBILLO E No, yo no vote, no, no A yo no vote, no, no E yo no vote, no, no B A yo no vote, no, no E A B soy de lo peor E A mí todos me acusan de ser un güevon Pero soy la mitad de nuestro padrón A Prefiero una erección que una elección E Con unas buenas morras yo quiero acción B A Los Angeles de Charly yo voy a elegir E Pues Carlos Salinas nos va a destruir No, yo no vote, no, no yo no?(REPETIR ESTRIBILLO)
PUENTE MUSICAL 1 

1|-12--12--12--12--15-12-------------------------|E 
2|-12--12--12--12---------15-12------------------|B 
3|-13--13--13--13----------------15-14-12--------|G 
4|----------------------------------------14-----|d 
5|-----------------------------------------------|a 
6|-----------------------------------------------|e 


1|-----------------------10--12-P-10----10-------|E 
2|----------12----12-----12----------12----------|B 
3|----12-14----14----14--------------------------|G 
4|-14--------------------------------------------|d 
5|-----------------------------------------------|a 
6|-----------------------------------------------|e 


1|-H-12-P-10----10-H-12-P-10----10-H-12-P----10--|E 
2|-----------12--------------12-----------12-----|B 
3|-----------------------------------------------|G 
4|-----------------------------------------------|d 
5|-----------------------------------------------|a 
6|-----------------------------------------------|e 


1|-12-|------------------------------------------|E 
2|-12-|----------12----12----12----12------------|B 
3|----|----12-14----14----14----14----14---------|G 
4|----|-14---------------------------------------|d 
5|----|------------------------------------------|a 
6|----|------------------------------------------|e 


1|-12--12--11-11--10-10---9--9--7-7-7-7-----------|E 
2|-12--12--11-11--10-10---9--9--7-7-7-7-----------|B 
3|-13--13--12-12--11-11--10-10--8-8-8-8-----------|G 
4|------------------------------------------------|d 
5|------------------------------------------------|a 
6|------------------------------------------------|e 
E Ay no manches mi dedo de color café Que su tinta indeleble huele a piquín A Ya no hagan agujeros en mi credencial E Que Yo solo la quiero para ir a cobrar B A Ya se, soy un hojaldra, una lacra social E Pues Mejor Ni voto si saben contar No, yo no vote, no, no yo no?(REPETIR ESTRIBILLO)
PUENTE MUSICAL 2 (REPETIR DOCE VECES) 

1|-----------------|----------|E 
2|-----------------|----------|B 
3|-----------------|----------|G 
4|-2-2-2-2-2-2-2-2-|----------|d 
5|-2-2-2-2-2-2-2-2-|-0-1-2----|a 
6|-0-0-0-0-0-0-0-0-|----------|e 

PARTE FINAL 

1|-----------------------------|E 
2|-----------------------------|B 
3|-----------------------------|G 
4|-2-2-0-2---------------------|d 
5|-2-2-0-2---------------------|a 
6|-0-0-0-0---------------------|e

roll up this ad to continue

share this page

See Also: