E-Chords
Padre Cleidimar Moreira

Há Um Chamado(Chords)

Padre Cleidimar Moreira

roll up this ad to continue

Key: D
Intro: G  D  D4  Am  Am7  C 

E|--------10------12------------------  7-------------| 
B|-10p12------12--------8-7-8-10---8p10---8------8----| 
G|----------------------------------------- 77p9---9--| 
D|----------------------------------------------------| 
A|----------------------------------------------------| 
E|----------------------------------------------------| 

E|-----------------14--15----------| 
B|---------15--17----------17------| 
G|-14--16--------------------------| 
D|---------------------------------| 
A|---------------------------------| 
E|---------------------------------| 
G Em Há um chamado vindo da montanha Am Am7 D D4 A todos nós para louvar o Senhor G Em Há um chamado vindo da montanha Am Am7 D D4 A todos nós para exaltar o Senhor G Cantem os anjos a glória Em Cantem os anjos conosco Am C F D D4 Cantemos juntos ao Senhor soberano G Em Am C F D A honra, a glória, a força e o poder G Em Am Am7 F D D4 A honra, a glória, a força e o poder ( G D D4 Am Am7 C ) G Em Há um chamado vindo da montanha Am Am7 D D4 A todos nós para louvar o Senhor G Em Há um chamado vindo da montanha Am Am7 D D4 A todos nós para exaltar o Senhor G Cantem os anjos a glória Em Cantem os anjos conosco Am C F D D4 Cantemos juntos ao Senhor soberano G Em Am C F D A honra, a glória, a força e o poder G D D4 Am Am7 C Oh, eu obedeço o Teu chamado Final G D D4 Am Am7 C Am C Am C
share this page

See Also: