E-Chords
OutroEu

Zade(Chords)

OutroEu

Key: F
(Riff) 

Parte 1 
E|--10--8h10p8------8-----------------------------------------| 
B|--------------10-----10--8h10p8--6--8--6-----6h8--8/10--10--| 
G|------------------------------------------7-----------------| 
D|------------------------------------------------------------| 
A|------------------------------------------------------------| 
E|------------------------------------------------------------| 

E|--10--8h10p8------8-------------------------------------| 
B|--------------10-----10--8h10p8--6--8--6-----6h8--8/10--| 
G|------------------------------------------7-------------| 
D|--------------------------------------------------------| 
A|--------------------------------------------------------| 
E|--------------------------------------------------------| 

Parte 2 
E|----------------6------5------1------3--| 
B|-------6/8------------------------------| 
G|--5/7-------5/7----7\5----5\3----3/5----| 
D|----------------------------------------| 
A|----------------------------------------| 
E|----------------------------------------| 

E|----------------6------5------1-------3--\1--| 
B|-------6/8-----------------------------------| 
G|--5/7-------5/7----7\5----5\3----3/5---------| 
D|---------------------------------------------| 
A|---------------------------------------------| 
E|---------------------------------------------| 
F Levei um susto que me fez um bem Gm Ganhei o mundo sem tirar o pé do chão Me deu sua mão F Pra ser um vulto tem de ser alguém Gm Alguém no mundo tem de ter um outro alguém Que faça bem a todos nós F Não tive custo pois só me fez bem Gm Ganhei o mundo e tirei meu pé do chão Me dê sua mão F Pra ser tumulto tem de ter alguém Gm Alguém no mundo tem de ser um outro alguém Que faça bem a todos nós F Ahh... Se eu pudesse ter Gm Mais um dia aqui com você F Ahh... Se eu pudesse ter Gm Mais um dia assim com vocês Bb F C Diz que sente o que eu senti Bb F C Diz que vê o que eu vi Bb F C Você é a verdade que não me doeu Bb F C Aquela ami que enfim zade já bateu Bb F C A sua coragem me fortaleceu Bb F C Você é o encaixe, à parte, em mim maior

roll up this ad to continue

share this page

See Also: