E-Chords
OutroEu

Poema De Lágrimas(Chords)

OutroEu

Key: Bb
Capo on 1st fret
  

 
E|--2--2--0--2------2--0--2--0-------------2------2--0--2--2----|  
B|--3-----------------------------3-----3--3--------------------|  
G|--2--------------------------------2-----2--------------------|  
D|--0--0-----0------------0----------------0------0-----0-------|  
A|--------------------------------------------------------------|  
E|--------------------------------------------------------------|  

E|--0--2--5--2---------0--0---------0--0-------0--2-----0----|  
B|---------------5--3--2---------2--------2----------2-------|  
G|---------------------2-------------------------------------|  
D|-----0---------------2---------2-------------------2-------|  
A|---------------------0--0-----------------------------0----|  
E|-----------------------------------------------------------|  

E|--0--0-----0----2----------|  
B|--------2----------2~--0---|  
G|---------------------------|  
D|-------------------2-------|  
A|---------------------------|  
E|---------------------------| 
D Olho pra você, processo em transição Recuo ao deixar o seu falar A Abrir sorrisos com poemas de lágrimas Sorrir com suas lágrimas D Você, que desde a primeira vez Me fez esquecer de me perguntar A O que eu faria nessa chuva Domingo de chuva D Você não sabe, o que eu sinto em vão A Você não sabe Você não sabe não D Você não sabe, o que eu fui sentir A Você não sabe Deixa existir D Olho pra você, processo em transgressão Recluso ao deixar você me olhar A Abrir sorrisos com poemas de lágrimas Sorrir com suas lágrimas D Você, que desde a primeira vez Me fez esquecer de me perguntar A O que eu faria nessa chuva Domingo de chuva D Você não sabe, o que eu sinto em vão A Você não sabe Você não sabe não D Você não sabe, o que eu fui sentir A Você não sabe Deixa existir D Olho pra você, processo em transição Recuo ao deixar o seu falar A Abrir sorrisos com poemas de lágrimas Sorri com suas lágrimas

roll up this ad to continue

share this page

See Also: