E-Chords
OutroEu

Coisa De Casa(Chords)

OutroEu

Key: F#
Capo on 6th fret
 
Intro: C Am 

     C 
E|-----------------------0--------------------1--0--------| 
B|-----------1-----3--------------------3-----------3--1--| 
G|--------0-----------0--------------0--------------------| 
D|-----2--------------------------2-----------------------| 
A|--3-----------3--------3-----3-----------3--------------| 
E|--------------------------------------------------------|

     Am 
E|-----------------------------------------------------| 
B|-----------1-----0-----1--------------1-----0--1--3--| 
G|--------2-----------2--------------2--------2--2--2--| 
D|-----2--------------------------2--------------------| 
A|--0-----------0--------------0-----------0-----------| 
E|-----------------------------------------------------|
C Noite gelada Sempre melhor que quente Cama arrumada Sempre junta a gente Am Bolo de chuva Junto com cobertor 'Ave maria' quem j ligou pro v C Casa abafada Luz que nem toca a gente Mesa empenada Bota um papel e a gente sai Am Bolo de chuva Acho que me molhou Que coisa absurda Algum j ligou pro v? F/C C G6(4) F/C Sai de casa sempre assim que der C G6(4) F/C C G6(4) F/C Mas sai sem esquecer que a sua casa sempre aqui F/C C G6(4) F/C Sair de casa s pra quem quer C G6(4) F/C C G6(4) ( F/C C G6(4) ) (3x) Pois a coragem anda a p e vai te levar pra longe ( C Am ) C Meia jogada No quarto jamais ausente Quadro entortado Dentro da foto a gente Am Bolo de chuva (toque de chuva.) Trs mais unzinho pro v Olha a fritura Mas dentro vem muito amor F/C C G6(4) F/C Sai de casa sempre assim que der C G6(4) F/C C G6(4) F/C Mas sai sem esquecer que a sua casa sempre aqui F/C C G6(4) F/C Sair de casa s pra quem quer C G6(4) F/C C G6(4) ( F/C C G6(4) ) (3x) Pois a coragem anda a p e vai te levar pra longe

roll up this ad to continue

share this page

See Also: