E-Chords
Os Dalits

Lucidez(Chords)

Os Dalits

Key: Cm
Intro Cm  Eb   Cm  Eb  
        Cm  Eb   Cm  Eb  
        Cm  Eb   Cm  Eb  

   Cm              Eb 
E|------------------------------------------| 
B|------------------------------------------| 
G|-5-5p3---3--------------------------------| 
D|-------5---5-3-5~---5-5p3---3-------------| 
A|--------------------------6---6-5-6\5-1/3-| 
E|------------------------------------------|
   Cm              Eb 
E|------------------------------------------| 
B|------------------------------------------| 
G|-5-5p3---3------------------3h5b8~-5p3-5~-| 
D|-------5---5-3-5~-------3h5---------------| 
A|--------------------3h6-------------------| 
E|------------------------------------------|
Cm Eb De tanto que vi eu me vi cego Cm Eb Procurando espaço onde o escuro implora a luz Cm Eb Eu que não fiz por merecer teus braços Cm Eb Que hoje já cansados não carregam minha cruz Cm Cm(7M)/B Cm7/Bb Am7(5-) Hoje vejo bem mais claro Cm Cm(7M)/B Cm7/Bb Am7(5-) Constelações não se formaram Cm G/D Cm/Eb Cm/F Do escuro eu disparo G7 Um fruto sensato da solidão Cm Eb E_____u Cm Eb Não volto ma-ais Cm Eb E_____u Cm Não volto mais não Eb D7 Cm Não volto ma-a-ais, uh-um
   Cm              Eb       
E|----------------------------------------------| 
B|----------------------------------------------| 
G|-5-5p3---3------------------------------------| 
D|-------5---5-3-5~---5-5p3---3-----------------| 
A|--------------------------6---6-5-6\5-1/3-----| 
E|----------------------------------------------|
   Cm              Eb 
E|----------------------------------------------| 
B|----------------------------------------------| 
G|-5-5p3---3------------------------------------| 
D|-------5---5-3-5~---5-5p3---3-----------------| 
A|--------------------------6---6-5-6\5-1h3-1/3-| 
E|----------------------------------------------|
( Cm Eb Cm Eb ) Cm Eb Se tua voz não diz medos sinceros Cm Eb Teu verso espero enquanto a lucidez seduz Cm Eb Eu que não quis viver em pedaços Cm Eb Sem deixar rastro do amor que em ti reluz Cm Cm(7M)/B Cm7/Bb Am7(5-) Hoje vejo bem mais claro Cm Cm(7M)/B Cm7/Bb Am7(5-) Constelações não se formaram Cm G/D Cm/Eb Cm/F Do escuro eu disparo G7 Um fruto sensato da solidão Cm Eb E_____u Cm Eb Não volto ma-ais Cm Eb E_____u Cm Não volto mais não Eb D7 Cm Não volto ma-a-ais, uh-um Solo Cm Eb Bb G7 Cm Cm(7M)/B Cm7/Bb Am7(5-) Cm G/D Cm/Eb Cm/F G7 Cm Eb E_____u Cm Eb Não volto ma-ais Cm Eb E_____u Cm Não volto mais não Eb D7 Cm Não volto ma-a-ais, uh-um

roll up this ad to continue

share this page

See Also: