E-Chords
Orange and Lemons

Pinoy Ako(Chords)

Orange and Lemons

Key: E
e|---------11-----------11----------11----------11------ 
b|------11----11-----11----11----11----11----11----11--- 
g|---13-----------13----------13----------13------------ 
d|------------------------------------------------------   
a|------------------------------------------------------ 
e|------------------------------------------------------ 
 
e|---------11----------11----------11----------11------- 
b|------11----11----11----11----11----11----11----11---- 
g|---12----------12----------12----------12------------- 
d|------------------------------------------------------ 
a|------------------------------------------------------ 
e|------------------------------------------------------ 
 
e|--------------- 
b|---5--7--7/9--- 
g|---4--7--7/9--- 
d|--------------- 
a|--------------- 
e|---------------
Verse I: E G#m F#m A E Lahat tayo'y mayrong pagkakaiba sa tingin pa lang ay makikita na G#m F#m A E|- G#m - F#m - A Iba't ibang kagustuhan ngunit isang patutunguhan E G#m F#m Gabay at pagmamahal ang hanap ko A E Pagbibigay ng halaga sa iyo G#m F#m A E Nais mong ipakilala kung sino ka man talaga Chorus: E G#m A Pinoy, ikaw ay pinoy Am E Ipakita sa mundo E G#m A|- Am Kung ano ang kaya mo Am E Ibang-iba pinoy G#m A Wag kang matatakot Am E Ipagmalaki mo G#m A|- Am Pinoy ako, pinoy tayo Verse II: E G#m F#m Ipakita mo ang tunay at kung sino ka? A E Mayroon mang masama at maganda G#m F#m Wala naman perpekto A E|- G#m - F#m - A|- E Basta magpakatotoo oohh... E G#m F#m Gabay at pagmamahal ang hanap mo A E Pagbibigay ng halaga sa iyo G#m F#m A E Nais mong ipakilala kung sino ka ngang talaga Repeat chorus Bridge: B Talagang ganyan ang buhay B Dapat ka nang masanay B Wala rin mangyayari B Kung laging nakikibagay B Ipakilala ang iyong sarili B Ano man sa iyo ang mangyayari B Ang lagi mong iisipin B A Kayang kayang gawin Repeat chorus

roll up this ad to continue

share this page

See Also: