E-Chords
Orange and Lemons

Abot Kamay (acoustic)(Chords)

Orange and Lemons

Key: Dm
Intro: FM7-CM7 (2X) 

 e|---0-----------------|       
 B|---1-3-1-0---1-0-----|    
 G|---2-------0----2-0--|3x 
 D|-3-3-----------------|   
 A|---------3-----------|   
 E|---------------------|   

 e|---0---------3-------| 
 B|---1-3-1-0-----------|    
 G|---2-------0---------|1x 
 D|-3-3-----------------|   
 A|---------3-----------|   
 E|---------------------| 
pwede din tong gamitin sa verse.. verse 1: FM7 CM7 Nakaw tingin FM7 CM7 Sumasabay sa hangin FM7 CM7 Sabihin mo sa 'kin Dm G Anong kailangan kong gawin Refrain: FM7 CM7 FM7 Upang malapitan, mamasdan, at mahawakan Dm Fm G Taglay mong kagandahan Chorus: C Am Abot kamay ang langit C Am Gayumang taglay ng awit FM7 G Abot kamay ang langit C Am Abot kamay ang langit C Am Haplos na dala ng tinig FM7 G Abot kamay ang langit verse 2: (Same Chords above) Nais kong abutin Kislap ng mga bituin Sapyo ng umaga sa hardin Anong kailangan kong gawin Refrain: FM7 CM7 FM7 Upang malapitan, mamasdan, at mahawakan Dm Fm G Taglay mong kagandahan Chorus: C Am Abot kamay ang langit C Am Gayumang taglay ng awit FM7 G Abot kamay ang langit C Am Abot kamay ang langit C Am Haplos na dala ng tinig FM7 G Abot kamay ang langit JLVeel............

roll up this ad to continue

share this page

See Also: