E-Chords
Opwekking

Opwekking 720 - God Maakt Vrij(Chords)

Opwekking

Key: C
Intro 
   C 
e|---------0-------|---------0-------|---------0-------|---------0-------| 
B|-------8-----8---|-------8-----8---|-------8-----8---|-------8---------| 
G|-----9---------9-|-----9---------9-|-----9---------9-|-----9-----------| 
D|---10------------|---10------------|---10------------|---10------------| 
A|-----------------|-----------------|-----------------|-----------------| 
E|-8---------------|-8---------------|-8---------------|-8---------------| 
   1 + 2 + 3 + 4 +   1 + 2 + 3 + 4 +   1 + 2 + 3 + 4 +   1 + 2 + 3 + 4 + 
Verse C (Riff 1) In de Naam van de Vader, in de Naam van de Zoon F2 In de Naam van de Geest voor Uw troon Am7 Zijn wij hier gekomen en verhogen Uw Naam F2 C U geeft ons genade, U roepen wij aan. Verse C (Riff 1) In de Naam van de Vader, in de Naam van de Zoon F2 In de Naam van de Geest voor Uw troon Am7 Zijn wij hier gekomen en verhogen Uw Naam F2 U geeft ons genade, U roepen wij aan. Pre-Chorus C C6 Csus C Hoor ons loflied Heer, Onze dank weerklinkt Fmaj9 Fmaj7 F2 Fmaj9 Eng'len buigen neer, Uw gemeente zingt Am7 Am F2/A Am7 En U draagt ons hoog op Uw vleugels mee F2 Heel de wereld ziet het
C G God maakt vrij, God maakt vrij Am7 F2 In die hoop leven wij.
Verse C (Riff 1) In de Naam van de Vader, in de Naam van de Zoon F2 In de Naam van de Geest voor Uw troon Am7 Zijn wij hier gekomen en verhogen Uw Naam F2 U geeft ons genade, U roepen wij aan. Pre-Chorus C C6 Csus C Hoor ons loflied Heer, Onze dank weerklinkt Fmaj9 Fmaj7 F2 Fmaj9 Eng'len buigen neer, Uw gemeente zingt Am7 Am F2/A Am7 En U draagt ons hoog op Uw vleugels mee F2 Heel de wereld ziet het
C G God maakt vrij, God maakt vrij Am7 F2 In die hoop leven wij. C G Ons verdriet wordt een lied Am7 F2 God maakt vrij, God maakt vrij
Interlude G F2 G F2 G F2 Am7 Am7 Pre-Chorus C C6 Csus C Hoor ons loflied Heer, Onze dank weerklinkt Fmaj9 Fmaj7 F2 Fmaj9 Eng'len buigen neer, Uw gemeente zingt Am7 Am F2/A Am7 En U draagt ons hoog op Uw vleugels mee F2 F2 Heel de wereld ziet het, ja de wereld ziet het
C G God maakt vrij, God maakt vrij Am7 F2 In die hoop leven wij. C G Ons verdriet wordt een lied Am7 F2 God maakt vrij, God maakt vrij C C God maakt vrij, God maakt vrij C C God maakt vrij, God maakt vrij
Riff 1 
   C                                   F 
e|---------0-------|---------0-------|---------0-------|---------0-------| 
B|-------8-----8---|-------8-----8---|-------8-----8---|-------8----8----| 
G|-----9---------9-|-----9---------9-|-----9---------9-|-----9--------9--| 
D|---10------------|---10------------|---10------------|---10------------| 
A|-----------------|-----------------|-8---------------|-8---------------| 
E|-8---------------|-8---------------|-----------------|-----------------| 
   1 + 2 + 3 + 4 +   1 + 2 + 3 + 4 +   1 + 2 + 3 + 4 +   1 + 2 + 3 + 4 + 

   Am7                                 F 
e|---------0-------|---------0-------|---------0-------|---------0-------| 
B|-------8-----8---|-------8-----8---|-------8-----8---|-------8----8----| 
G|-----9---------9-|-----9---------9-|-----9---------9-|-----9--------9--| 
D|---10------------|---10------------|---10------------|---10------------| 
A|-0---------------|-0---------------|-8---------------|-8---------------| 
E|-----------------|-----------------|-----------------|-----------------| 
   1 + 2 + 3 + 4 +   1 + 2 + 3 + 4 +   1 + 2 + 3 + 4 +   1 + 2 + 3 + 4 + 

   C 
e|---------0-------|---------0-------| 
B|-------8-----8---|-------8---------| 
G|-----9---------9-|-----9-----------| 
D|---10------------|---10------------| 
A|-----------------|-----------------| 
E|-8---------------|-8---------------| 
   1 + 2 + 3 + 4 +   1 + 2 + 3 + 4 +

roll up this ad to continue

share this page

See Also: