E-Chords
Old Dominion

Said Nobody(Chords)

Old Dominion

roll up this ad to continue

Key: Dm
Intro: 

        Dm C G         Dm C G   
E ------10-8-7--|------10-8-7-| 
B --------------|-------------| 
G -7/10---------|-7/10--------| 
D --------------|-------------| 
A --------------|-------------| 
E --------------|-------------| 
Verse: Dm Am G I'm tired of having fun Dm Am G I'm sick of watching that sunset, N.C. Painting the sky red Dm Am I just wanna turn in early G I don't want to see where this goes Dm Am You're getting just a little to flirty G You're getting just a little to close
Dm Am Said nobody G Said nobody, ever-er Dm Am Said nobody G Said nobody, ever-er Dm Don't come any closer Am Don't give me a kiss G 'Cause I don't wanna taste your lips Dm Am Said nobody G Said nobody, ever-er
        Dm C G          
E ------10-8-7--| 
B --------------| 
G -7/10---------| 
D --------------| 
A --------------| 
E --------------| 
Verse: Dm Am G I wish you'd just behave Dm Am G And I wish that strap would stay, Up there on your shoulder Dm Am I don't want to buy you another drink G I'd rather go home alone instead Dm Am I don't wanna wake up in the morning G Slide to your side of the bed
Dm Am Said nobody G Said nobody, ever-er Dm Am Said nobody G Said nobody, ever-er Dm Don't come any closer Am Don't give me a kiss G 'Cause I don't wanna taste your lips Dm Am Said nobody G Said nobody, ever-er
Instrumental:
         Dm        Am        G            Dm        Am      G    
E -------13-12-10--12-10-8--10-7--|-------13-12-10--12-10-8---| 
B --------------------------------|-------------------------8-| 
G -10-12--------------------------|-10-12---------------------| 
D --------------------------------|---------------------------| 
A --------------------------------|---------------------------| 
E --------------------------------|---------------------------|
Verse: Dm Am I don't wanna know what it feels like G To be loved by a girl like you Dm Am Last thing I need is your heart beating G To my heart beat Dm And I don't wanna hear you say Am G Oooh ooohhh, baby
Dm Am Said nobody G Said nobody, ever-er Dm Am Said nobody G Said nobody, ever-er Dm Don't come any closer Am Don't give me a kiss G 'Cause I don't wanna taste your lips
Dm Am Said nobody G Said nobody, ever-er Dm Am Said nobody G Said nobody, ever-er Dm Am G Wooh ooohhh, baby Dm Am G Wooh ooohhh, baby Dm Am G Yeah
share this page

See Also: