E-Chords
O Muro de Pedra

Virtual(Chords)

O Muro de Pedra

roll up this ad to continue

Key: G#m
Intro: G#m9  F#6  C#m7  D#m7/C# 

   G#m9     F#6    C#m7       D#m7/C# 
E|-------2----------------------------------| 
B|---0---------------0---4------------------| 
G|-1---1----3/4\3--1---1---4--3/4\3/4\3-----| 
D|------------------------------------------| 
A|------------------------------------------| 
E|------------------------------------------|

Verse 1:

G#m9 F#6 A cidade não parou C#m7 Vejo ruas cheias E6 B9(6) Corações vazios G#m/D# E aquilo que deveria F#9 Nos conectar C#m7(9) C#m/G# G#m4 Tem nos afastado
G#m O que separa a G#m7M G#m Gente é o virtual C#5 G#5 A mente está longe G#m Não consegue ver E7M F#6 Onde está a esperança G#m F#6 Que antes era a liga que nos unia E7M F#6 Talvez a solução seja G#9 Apenas se enxergar no outro G#m E7M F#4(6) Pra então se encontrar
   G#m9     F#6    C#m7       D#m 
E|-------2----------------------------------| 
B|---0---------------0---4------------------| 
G|-1---1----3/4\3--1---1---4--3/4\3/4\3-----| 
D|------------------------------------------| 
A|------------------------------------------| 
E|------------------------------------------|

Verse 2:

G#m9 F#6 A luz do dia clareou C#m7 O renovando a mente E6 B9(6) Uma nova ideia G#m/D# F#6 As redes sociais C#m7(9) Cada vez mais C#m/G# G#m4 Antissociais
G#m O que separa a G#m7M G#m Gente é o virtual (As telas nos separam entre bem e mal) C#5 G#5 A mente está longe G#m Não consegue ver (o que eu não consigo ver?) E7M F#6 Onde está a esperança G#m F#6 Que antes era a liga que nos unia E7M F#6 Talvez a solução seja G#9 Apenas se enxergar no outro G#m E7M F#4(6) Pra então se encontrar
( G#m9 F#6 C#m7 D#m7/C# ) Final E7M F#6 Onde está a esperança G#m F#6 Que antes era a liga que nos unia E7M F#6 Talvez a solução seja G#9 Apenas se enxergar no outro G#m E7M Pra então se encontrar E7M Encontrar!
   E7M   G#m9   F#6    E7M           G# 
E|-----2-------------------2----------------| 
B|---0-----4-2--0h2p0----0---2h4-2p0--------| 
G|-1-----1-------------1-------------1------| 
D|------------------------------------------| 
A|------------------------------------------| 
E|------------------------------------------|
share this page

See Also: