E-Chords
Nickelback

Far Away(Chords)

Nickelback

Watch the video lesson
Key: B
Intro: B5  B7+ F#4 F# G#m7 G#m9 E9(13) (2x)   

Introdução  



 e|---------------------------------------------------------------|  
 B|----------0---------------0---------------0-------------2------|  
 G|----4---3-----4-----4---3-----4-----4---3-----4-----4-----4---4|  
 D|--4---4-----4-----4---4-----4-----4---4-----4-----4---4-----4--|  
 A|2--------------------------------------------------------------|  
 E|----------------2---------------4---------------0--------------|(4x)  




 e|---------------------------------------------------------------|  
 B|----------4---------------4---------------7-------9------------|  
 G|------6-----6---6-----6-----6---6-----9-----9---9-9------------|  
 D|----6---6-----6-----6---6-----6-----9---9-----9---9------------|  
 A|--4---------------4---------------7---------------7------------|  
 E|---------------------------------------------------------------|  

Primeira Parte: B5 F# G#m E B5 This time, this place, Misused, mistakes F# G#m E B5 Too long, too late, Who was i to make you wait F# G#m Just one chance, Just one breath E C#9 Just in case there's just one left 'cause you know, E9 You know, you know
B9 F# That i love you G#m E B9 I have loved you all along F# And i miss you G#m E B9 Been far away for far too long F# G#m E I keep dreaming you'll be with me B9 And you'll never go F# G#m Stop breathing if E I don't see you anymore
Intro: B5 B7+ F#4 F# G#m7 G#m9 E9(13) Primeira Parte - com variação na letra: B5 F# G#m One my knees, i'll ask, E B5 Last chance for one last dance F# G#m 'cause with you, i'd withstand, E B5 All of hell to hold your hand F# G#m I'd give it all, I'd give for us E C#9 Give anything but i won't give up 'cause you know, E9 You know, you know
B9 F# That i love you G#m E B9 I have loved you all along F# And i miss you G#m E B9 Been far away for far too long F# G#m E I keep dreaming you'll be with me B9 And you'll never go F# G#m Stop breathing if E I don't see you anymore
Segunda Parte: B5 F# G#m So far away E B5 Been far away for far too long B4 F# G#m So far away E C#9 Been far away for far too long E9 But you know, you know, you know
B9 F# G#m I wanted E B9 I wanted you to stay F# G#m 'cause i needed (pausa) I need to hear you say C#9 G# That i love you A#m F# C#9 I have loved you all along G# And i forgive you A#m F# C#9 For being away for far too long G# So keep breathing A#m F# cause i'm not leaving C#9 you anymore G# Believe it A#m F# Hold on to me and, C#9 never let me go G# keep breathing A#m F# 'cause i'm not leaving C#9 you anymore G# Believe it A#m F# Hold on to me and, C#9 never let me go G# keep breathing A#m F# C#9 Hold on to me and never let me go

roll up this ad to continue

share this page

See Also: