E-Chords
Nicholas David

Say Goodbye(Chords)

Nicholas David

roll up this ad to continue

Key: G
Nicholas David 
Say Goodbye 
tabbed by Jeremy Forsythe  

intro 
G 

G 
I would breathe for 
B7                  Em 
I could breathe for you 
            Am 
if you only let me try 
G 
I would cry for 
B7              Em 
I would die for you 
                   Am 
if you only let me say goodbye 
e------------------------| 
B------------------------| 
G-4---6---4---6/8--6---4-| 
D-5---7---5---7/9--7---5-| 
A------------------------| 
E------------------------| 


        G 
say goodbye 

e-------------------| 
B-------------------| 
G-4---6---8---6---4-| 
D-5---7---9---7---5-| 
A-------------------| 
E-------------------| 



        Am 
say goodbye 

e--9--7--5---5/7----5----3-| 
B-10--8--5---5/8----5----3-| 
G--------------------------| 
D--------------------------| 
A--------------------------| 
E--------------------------| 
G mmmm G we watched 'em grow B7 we watched 'em rise Em we watched 'em change Am right before our very eyes G and different ways B7 some goin' that way Em some comin' from here Am others have just arrived G just arrived Am just arrived G oooh C I've watched you grow G you're the most beautiful C G thing I ever seen C you meant my world G each day Am you're wonderful D no matter how down you get Live version Am you're wonderful D no matter how dirty you are Am you're wonderful D no matter how broken you feel Am you're wonderful G oh oh
solo 
e---------------------------------------------------------------| 
B-15--12-15--12----16--12-16-----------------------------12-----| 
G----------------------------14--12----12------12----14------14-| 
D------------------------------------------14-------------------| 
A---------------------------------------------------------------| 
E---------------------------------------------------------------| 

e---------------------------------------------------------------| 
B-15--12-15--12----16--12-16-----------------------------12-----| 
G----------------------------14--12----12------12----14------14-| 
D------------------------------------------14-------------------| 
A---------------------------------------------------------------| 
E---------------------------------------------------------------| 

e--------------------------------------------------------------| 
B----12------------------12------------------------------------| 
G-14----14---12-------14----14---------------------------------| 
D--------------------------------------------------------------| 
A--------------------------------------------------------------| 
E--------------------------------------------------------------| 
G I could breathe for B7 Em I would breathe for you Am if you only let me try G I would cry for B7 Em I would die for you Am if you only let me say goodbye G say goodbye Am say goodbye G say goodbye Am say goodbye
e--9--7--5---5/7----5----3-| 
B-10--8--5---5/8----5----3-| 
G--------------------------| 
D--------------------------| 
A--------------------------| 
E--------------------------| 
G oh oh
share this page

See Also: