E-Chords
Natal

Jingle Bell Rock(Chords)

Natal

roll up this ad to continue

Key: A
E|-13/14--14-14~----13/14--14-14~---------------------| 
B|-14/15--15-15~----13/14--14-14~---------------------| 
G|----------------------------------------------------| 
D|----------------------------------------------------| 
A|----------------------------------------------------| 
E|----------------------------------------------------| 

E|-14--17--10--12--12b13--13r12--10-------------------| 
B|-15--15--10--12--12b13--13r12--10--12--10-----------| 
G|-----------------------------------12--10h11~-------| 
D|----------------------------------------------------| 
A|----------------------------------------------------| 
E|----------------------------------------------------| 
( A7 A7/G A7/F# A7/E )

Verse 1:

D7M D7M/A D7M D7M/A Jingle bell, jingle bell, jingle bell rock D7M D#º Em7 A7(9) Jingle bells swing and jingle bells ring Em7 A7 Em7 A7 Snowin' and blowin' up bushels of fun Em7 A7 A7/G A7/F# A7/E Now the jingle hop has begun D7M D7M/A D7M D7M/A Jingle bell, jingle bell, jingle bell rock D7M D#º Em7 Jingle bells chime in jingle bell time Em7 A7 Em7 A7 Dancin' and prancin' in Jingle Bell Square Em7 A7 D7M In the frosty air

Verse 2:

G G#º What a bright time, it's the right time D7M D#º To rock the night away E7(9) Jingle bell time is a swell time A7 A7 A7/G A7/F# A7/E To go glidin' in a one-horse sleigh

Verse 3:

D7M D7M/A D7M D7M/A Giddy-up jingle horse, pick up your feet D7M D7M/A D7M C7 B7 Jingle a______round the clock G Gm Mix and a-mingle in the jinglin' feet Eb7(9) E7(9) A7 D7M That's the jingle bell rock
E|-11-11-11--10-10-10--8-10-8----8-10-8--8------------| 
B|----------------------------8----------8--11--------| 
G|----------------------------------------------------| 
D|----------------------------------------------------| 
A|----------------------------------------------------| 
E|----------------------------------------------------| 

E|-------------8-------------8/10-10---10-10-10-11----| 
B|----8-8h9/11--------8----8h9/11-11---11-11-11-11----| 
G|-10-------------------10----------------------------| 
D|----------------------------------------------------| 
A|----------------------------------------------------| 
E|----------------------------------------------------| 

Verse 1:

D7M D7M/A D7M D7M/A Jingle bell, jingle bell, jingle bell rock D7M D#º Em7 Jingle bells chime in jingle bell time Em7 A7 Em7 A7 Dancin' and prancin' in Jingle Bell Square Em7 A7 D7M In the frosty air D7M D7M/A D7M D7M/A Jingle bell, jingle bell, jingle bell rock D7M D#º Em7 Jingle bells chime in jingle bell time Em7 A7 Em7 A7 Snowin' and blowin' up bushels of fun Em7 A7 A7/G A7/F# A7/E Now the jingle hop has begun D7M D7M/A D7M D7M/A Jingle bell, jingle bell, jingle bell rock D7M D#º Em7 Jingle bells chime in jingle bell time Em7 A7 Em7 A7 Dancin' and prancin' in Jingle Bell Square Em7 A7 D7M In the frosty air

Verse 2:

G G#º What a bright time, it's the right time D7M D#º To rock the night away E7(9) Jingle bell time is a swell time A7 To go glidin' in a one-horse sleigh

Verse 3:

D7M D7M/A D7M D7M/A Giddy-up jingle horse, pick up your feet D7M D7M/A D7M C7 B7 Jingle a______round the clock G Gm Mix and a-mingle in the jinglin' feet Eb7(9) E7(9) A7 That's the jingle bell rock Eb7(9) E7(9) A7 That's the jingle bell rock Eb7(9) E7(9) A7 D7M That's the jingle bell rock
Final 

E|-13/14--14-14~----13/14--14-14~--------------------| 
B|-14/15--15-15----~13/14--14-14~--------------------| 
G|---------------------------------------------------| 
D|---------------------------------------------------| 
A|---------------------------------------------------| 
E|---------------------------------------------------| 

E|-17--12b13--10-12--10---10-------------------------| 
B|-15--12b13--10-12--10---10-------------------------| 
G|------------------------10h11----------------------| 
D|------------------------0--------------------------| 
A|---------------------------------------------------| 
E|---------------------------------------------------|
share this page

See Also: