E-Chords
Nahuel Briones

Juguetitos(Chords)

Nahuel Briones

Key: F#m
F#m      Amaj7      Bm        F#m 
Dios nos ha resguardado. 

  Amaj7       Bm 
Estábamos marcados 

                  C#m 
desde antes de nacer, 

         Gmaj7 
predestinados 

            C#m Dmaj7 
a no vivir juntos. 

               E    E(b9) 
a no vivir juntos. 



      F#m 
Pero nena, no dudes en llamarme 

                 Bm 
si estás en problemas. 

     A            E            F#m 
No quiero recordar más las pastillas, 

                                Bm 
el neuropsiquiátrico ni a tu familia. 

  A     E    F#m     Bm    A  E 
Quiero ser liiiibre. 







F#m                  F#m7 
Nena, no dudes en llamarme 

                 Bsus2/7 
si estás en problemas. 

     A            E            F#m 
No quiero recordar más las pastillas, 

              F#m7                   Bsus2/7 
el neuropsiquiátrico ni a tu familia. 

E5 
Quiero ser 

F#m 
Nena, no dudes en llamarme 

                 Bm7      A     E 
si estás en problemas. 

F#m 
Nena, no dudes en llamarme 

                 Bm7 
si estás en problemas. 

      A5 E5   F#5 
probleeeeeeemas. 



B5-A5-E5-F#5 


A5 - E 



Dadd9              B7sus4 
Si en un sueño aparece una noche 

      A           F#m6/C# 
una suerte de collage 

   G/B                  A/C# 
de lo que fuimos / lo que no seremos 

  Dmaj7           Bm7 
y te hace sentir mal, 

              E 
siempre recordá 

           Bm      E (Fill 4)   Bm 
que hemos sido bendecidos 

               E 
Tenés que olvidar 

       A/E     A/D# A/D   A    A  G# 
todos los dibujitos animados, 

G 
los juguetitos 



F#m                   G/D                   F#m/E        E  Fill 5 
Nena, no dudes en llamarme si estás en problemas. 


Riff 
        F#5 (repite dos veces)               B5 
e||----------------------------|----------------------------| 
B||----------------------------|----------------------------| 
G||----------------------------|----------------------------| 
D||----------------------------|--4--4-(4)-(4)-(4)-(4)-(4)--| 
A||--4--4-(4)-(4)-(4)-(4)-(4)--|--2--2--0---2---4---2---0---| 
E||--2--2--0---2---5---2---0---|----------------------------| 


Fill1 

e||-----------------------------| 
B||-----------------------------| 
G||-----------------------------| 
D||--4----4---------------------| 
A||--2----2--0--2/4p0--2/4p0----| 
E||-----------------------------| 


Fill 2: 

e||--------------------------| 
B||--------------------------| 
G||--------------------------| 
D||--------------------------| 
A||--2/4-2--2/4-2-0----------| 
E||-----------------2-0------| 


Fill 3: 

e||----------------------------| 
B||----------------------------| 
G||----------------------------| 
D||------------2---------------| 
A||--0--0--3-4-----------------| 
E||---------------0--0--2-4-1--| 


Fill 4 

e||--------------------------|| 
B||--------------------------|| 
G||-----------------6--7--9--|| 
D||--------6--7--9-----------|| 
A||--7--9--------------------|| 
E||--------------------------|| 


Fill 5 (Mantener sonando el Mi de la 6ta cuerda) 

e||--------------------------------||-------------------------|| 
B||--------------------------------||--------0--2--0----------|| 
G||--------------------------------||--1--2-----------2--1----|| 
D||--------------------------------||--2----------------------|| 
A||--11--12--14--16--14--12--11--7-||--2----------------------|| 
E||---0----------------------------||--0----------------------|| 

roll up this ad to continue

share this page

See Also: