E-Chords
My Sleeping Karma

Pachyclada(Chords)

My Sleeping Karma

roll up this ad to continue

e|---------------------------------------------------------------| 
B|------------------------------------8--------------------------| 
G|---------------------------------------------------------------| x6 
D|--7-7-77-77-7-77-9-10-10-1010-9--10---10-9-7-------------------| 
A|---------------------------------------------------------------| 
E|---------------------------------------------------------------| 

e|---------------------------------------------------------------| 
B|------8-10-8-10-8-----8-10-8-10-8-10-8-----10-8----------------| 
G|--7-9-------------7-9------------------9-9------7-7------------| x4 
D|---------------------------------------------------------------| 
A|---------------------------------------------------------------| 
E|---------------------------------------------------------------| 

e|---------------------------------------------------------------| 
B|------------------------------------8--------------------------| 
G|---------------------------------------------------------------| x4 
D|--7-7-77-77-7-77-9-10-10-1010-9--10---10-9-7-------------------| 
A|---------------------------------------------------------------| 
E|---------------------------------------------------------------| 

e|---------------------------------------------------------------| 
B|------8-10-8-10-8-----8-10-8-10-8-10-8-----10-8----------------| 
G|--7-9-------------7-9------------------9-9------7-7------------| x4 
D|---------------------------------------------------------------| 
A|---------------------------------------------------------------| 
E|---------------------------------------------------------------| 

e|---------------------------------------------------------------| 
B|------------------------------------8--------------------------| 
G|---------------------------------------------------------------| x4 
D|--7-7-77-77-7-77-9-10-10-1010-9--10---10-9-7-------------------| 
A|---------------------------------------------------------------| 
E|---------------------------------------------------------------| 

e|---------------------------------------------------------------| 
B|------------------------------------8--------------------------| 
G|---------------------------------------------------------------| x6 
D|--7-7-77-77-7-77-9-10-10-1010-9--10---10-9-7-------------------| 
A|---------------------------------------------------------------| 
E|---------------------------------------------------------------| 

e|---------------------------------------------------------------| 
B|---------------------------------------------------------------| 
G|---------------------------------------------------------------| x10 
D|--9--9-9-7--7-7--7-7-7---10--10-10-9--9-9---10-9-7-------------| 
A|--0--0-0-0--0-0--0-0-0---0---0--0--0--0-0---0--0-0-------------| 
E|---------------------------------------------------------------| 

e|---------------------------------------------------------------| 
B|---------------------------------------------------------------| 
G|------7-9--------7-9--------7-9--------------------------------| x8 
D|--7-7-----7--7-7-----7--7-7-----7-10-9-7-----------------------| 
A|---------------------------------------------------------------| 
E|---------------------------------------------------------------| 

e|---------------------------------------------------------------| 
B|------------------------------------8--------------------------| 
G|---------------------------------------------------------------| x4 
D|--7-7-77-77-7-77-9-10-10-1010-9--10---10-9-7-------------------| 
A|---------------------------------------------------------------| 
E|---------------------------------------------------------------| 

e|---------------------------------------------------------------| 
B|---------------------------------------------------------------| 
G|------7-9--------7-9--------7-9--------------------------------| x8 
D|--7-7-----7--7-7-----7--7-7-----7-10-9-7-----------------------| 
A|---------------------------------------------------------------| 
E|---------------------------------------------------------------|
share this page

See Also: