E-Chords
Muse

Uprising(Chords)

Muse

Watch the video lesson
Key: Dm
(intro) Dm       Bb   A         G   F   Dm      Bb   A         G    F  

E |---------------------------------------------------------------------------|  
B |-10-6--------------10-5-----11-13-11-10------------------------------------|  
G |------7-----------------6--------------------------------------------------|  
D |--------7-8~10-8-7--------7------------------------------------------------|  
A |---------------------------------------------------------------------------|  
E |---------------------------------------------------------------------------|  

E |-----------------------------------------------------------------------------|  
B |-10-6-------6-10---11-10-8-10-----10-5-------5-8---8-6-5-6---14-14-----------|  
G |------7---7------7---------------------6---6-----6---------------------------|  
D |--------7--------------------------------7-----------------------------------|  
A |-----------------------------------------------------------------------------|  
E |-----------------------------------------------------------------------------|
Dm G The paranoia is in bloom, the PR F The transmissions will resume A They'll try to push drugs Gm Keep us all dumbed down and hope that F Dm We will never see the truth around (So come on) Dm Gm Another promise, another scene, another F A package not to keep us trapped in greed A With all the green belts wrapped around our minds Gm F Dm ...and endless red tape to keep the truth confined (So come on) (coro) Dm Bb A They will not force us A Gm F They will stop degrading us Dm Bb A They will not control us A Gm F Dm We will be victorious Dm Gm Interchanging mind-control come let the F A Revolution take its toll if you could Gm Flick the switch and open your third eye, you'd see that F Dm We should never be afraid to die (So come on) Dm Gm Rise up and take the power back, it's time that F The fat cats had a heart attack, you know that A Gm Their time is coming to an end, we have to F Dm Unify and watch our flag ascend (coro) Dm Bb A They will not force us A Gm F They will stop degrading us Dm Bb A They will not control us A Gm F Dm We will be victorious
(solo 3x)  
(Dm         G   F   A        G    F)  

E |-----------------------------------------------------------------------------|  
B |-----------------------------------------------------------------------------|  
G |------------------14-14-12-14-10-14-9-14----14----14----14-------------------|  
D |-----------------------------------------12----10----------------------------|  
A |-------0-2-3-5-x4------------------------------------13----12-13-12-13-12----|  
E |-0-3-5-----------------------------------------------------------------------|  

E |---------------------------------------------------------------------------|  
B |-------------15------------------------------------------------------------|  
G |-------------17b-----------------------------------------------------------|  
D |---------------------------------------------------------------------------|  
A |-12-12-10-12---------------------------------------------------------------|  
E |---------------------------------------------------------------------------|
(3X) (coro) Dm Bb A They will not force us A Gm F They will stop degrading us Dm Bb A They will not control us A Gm F Dm We will be victorious (Dm Gm F A Gm F Dm)

roll up this ad to continue

share this page

See Also: