E-Chords
Mr. Big

To Be With You (ver. Luau)(Chords)

Mr. Big

Key: E

C#m                E 
 Hold on little girl 
       A9          E 
 Show me what he's done to you 
C#m7               E 
 Stand up little girl 
        A9         E 
 A broken heart can't be that bad 
  A9            E              A9 
 When it's through, it's through 
                E 
 Fate will twist the both of you 
  D               
 So come on baby come on over 
 B9 
 Let me be the one to show you 

E A9 B9 E I'm the one who wants to be with you E A9 B9 E Deep inside i hope you'll feel it too E A9 B9 E Waited on a line of greens and blues E A9 B9 E Just to be the next to be with you
C#m7 E Build up your confidence A9 E So we can be on top for once C#m7 E Wake up! who cares about A9 E Little boys that talk too much A9 E I seen it all go down A9 E Your game of love was all rained out D B9 So come on baby, come on over Let me be the one to hold you
E A9 B9 E I am the one yeah... E A9 B9 E Deep inside i hope you'll feel it too E A9 B9 E Waited on a line of greens and blues E A9 B9 E Just to be the next to be with you
A9 C#m7 Why be alone when we can be together baby? G You can make my life worthwile E And i can make you start to smile
Solo: A9 B9 E (3x) C#m7 E A9 B9 E 

e|----------------------------------------4-2-2h4h2p0--0-------| 
B|---------5-------------------------5----5------------0-------| 
G|-1--4/6-----6--4--4-4-4----2--4/6----6-----------------------| 
D|-2--2/4-----7--7--4-4-4H6--1--2/4----7-----------------------| 
A|-------------------------------------------------------------| 
E|-----------------------------------------------------------0-| 

e|-------------------4-4------------7---5-4-5-5-7------4-| 
B|--------5----------5-5----------5---5-----------5\2--5-| 
G|-1-4/6----6--4--4--6-6------4-6------------------------| 
D|-2-2/4----7--7--4-------4-6----------------------------| 
A|-------------------------------------------------------| 
E|-------------------------------------------------------| 

e|-2-2h4p2p0--12(HA)-------| 
B|------------12(HA)--7/9--| 
G|-------------------------| 
D|-------------------------| 
A|-------------------------| 
E|-------------------------| 

A9 E A9 When it's through, it's through E Fate will twist the both of you D B9 So come on baby, come on over let me Be the one to show you.
G C9 D G I'm the one who wants to be with you G C9 D G Deep inside i hope you'll feel it too G C9 D Em Waited on a line of Waited on a line G C9 D G Just to be the next to be with you E A9 B4 E I'm the one who wants I'm the one the one E A9 B4 E Deep inside i hope you'll feel it too E A9 B9 C#m7 Waited on a line wated on a line E A9 B9 E Just to be the next to be with you

roll up this ad to continue

share this page

See Also: