E-Chords
MotorHead

Be My Baby(Chords)

MotorHead

roll up this ad to continue

Key: C#
		Riff Intro:
E|-----------------------------------------------------------|
B|-----------------------------------------------------------|
G|-----------------------------------------------------------|
D|-----------------------------------------------------------|
A|-----------------------------------------------------------|
E|3-2-1-0-0-1-0-0-1-0-0-1-0-3-2-1-0-0-1-0-0-1-0-0-1-0-3-2-1-0|    

(Assim repetidamente) make out, make out, you must run, divide & rule, more & more say the word, hardcore, hardcore (até aqui toca-se o riff da introdução) F#5 G5 you live your life, behind your eyes, F#5 G5 A5 you got no life, no disguise, D5 C5 be my baby, i ain't gonna cry D5 C5 shut your mouth, wanna do the dog, D5 C5 G5 sex with needles, gonna get you off D5 C5 outlaw, outlaw, no ma'am, no way D5 C5 damn shame, i'll say, i'll say D5 C5 G5 going to a freak show, to take my pain away. (Começa o riff da introdução) breakout, breakout, you must dance, divide & fall, more & more, save the world, high score, high score, (termina o riff da introdução) F#5 G5 you live your life, behind the wall, F#5 G5 A5 you got no life, not at all. D5 C5 be my baby, i ain't gonna cry D5 C5 shut you down, wanna do the dog, D5 C5 G5 sex with monsters, gonna get you off D5 C5 outlaw, outlaw, no ma'am, no way D5 C5 turn me down, damn shame, i'll say D5 C5 G5 going to a gun show, to take my brain away.
SOLO:

E|-------------------------------------------------------------------|
B|-----8-7----------------------8\10-8-7-----------------------------|
G|4-7-----7-4-4---2p4-2p4---4-7----------7-2---6---------------------|
D|-------------------------------------------------------------------|
A|-------------------------------------------------------------------|
E|-------------------------------------------------------------------|

(Repete o solo duas vezes e começa o riff da introdução) fake out, fake out, you can't leave, divide & stall, more & more, say the word, webcore, webcore, (termina o riff da introdução) F#5 G5 you crawl with life, behind your face, F#5 G5 A5 you got no life, no disgrace, D5 C5 be my baby, i ain't gonna die D5 C5 stay right there, wanna do the dog, D5 C5 G5 sex with killers, ain't gonna get them off D5 C5 outlaw, outlaw, no man, no way D5 C5 turn me down, damn shame, i'll say D5 C5 G5 going to a gun show, to take my shame away. (No fim há um simples riff e acaba ). (aconselho a tocar acompanhando a música)
E|----------------------------------------|
B|----------------------------------------|
G|----------------------------------------|
D|----------------------------------------|
A|----------------------------------------|
E|3-2-1-0-0-------------------------------|
share this page

See Also: