E-Chords
Motivo Doze

Remédio(Chords)

Motivo Doze

Key: C
Intro C  G  Am G F 

C 
Todos os dias o mesmo assunto 
G 
Nós temos que parar 
Am 
Tantos segredos, um livro inteiro 
F 
E o destino é feito pra mudar 
C 
Tantas palavras, tantas conversas 
G 
E o resultado pode ser em vão 
Am 
Foda se o risco, não me importo com isso 
F 
É o remédio, é a solução 
C                  G 
Aproveite o momento, como tudo, isso chega ao fim 
Am            G 
Relembre o passado 
F 
Mas não esqueça quem esteve ao seu lado 


   
C E assim se foi G Mas uma história acabou Am G F E mesmo assim, não vou esquecer do tempo C G E não vou mudar de opinião Am G F Eu não me arrependo, eu não me arrependo! C G De nada que eu fiz até aqui Am G F Eu não me arrependo, eu não me arrependo!
E|--------------------------------| 
B|---8---6-----------8--6---------| 
G|-----------9---5----------9---5-| 
D|--------------------------------| 
A|--------------------------------| 
E|--------------------------------| 

E|-------8----8-----| 
B|--6/10---10---10--| 
G|------------------| 
D|------------------| 
A|------------------| 
E|------------------| 
Lá rá rá rá... Lá rá rá rá... Lá rá rá rá Lá rá rá rá... Lá rá rá rá... Lá rá rá rá Lá rá rá rá... Lá rá rá rá... Lá rá rá rá Lá rá rá rá... Lá rá rá rá... Lá rá rá rá Lá rá rá rá... Lá rá rá rá... Lá rá rá rá Lá rá rá rá... Lá rá rá rá... Lá rá rá rá

roll up this ad to continue

share this page

See Also: