E-Chords
Moraes Moreira

Feito Jorge Ser Amado(Chords)

Moraes Moreira

roll up this ad to continue

Key: B
Intro: B 

(Solo de introdução) 

E|------7-6-4-----------------------------7-6-4--------------------------------- 
B|------4-4-4---7-4-------------7-4-------4-4-4---7-4-------------7-7--4-------- 
G|------4-4-4---4-4---4--5--6---4-4-------4-4-4---4-4---4--5--6---4-4--4-------- 
D|---4--------4---------------4--------4--------4---------------4--------------- 
A|-------------------2--3--4---------------------------2--3--4------------------ 
E|------------------------------------------------------------------------------ 
F#4/B F#/B F#4/B Jorge Amado onde se lê F#/B F#4/B Dorival onde se ouve B C#m7 Carybé onde se vê. E6/C# F#7 Love Menininha, Love Dance como quem se move B Pelos olhos de Verger. F#4/B F#/B F#4/B No tempero, simples cravo F#/B F#4/B Gabriela, Mário Cravo B7 E Tem canela e tem dendê D#m7 Dona Flor e seus gemidos G#m7 C#m7 Dona Flor e seus maridos F#7 B Dona Flor e seu prazer. B B7M O caminho de Vadinho C#m7 Canta Bahia folia F#7 Feito Jorge ser Amado B Quem é que não gostaria? B7M Canta Quincas Berro D´Água C#m7 Canta na morte, menina F#7 Feito Jorge ser Amado B Quem é que não gostaria? (Ponte para o refrão; enquanto soa o B)
 
E|-----7-7-6--------- 
B|-----7-7-7-9-7----- 
G|-----------9-8----- 
D|------------------- 
A|------------------- 
E|---7--------------- 
C#m7 B C#m7 Quem é? Quem é? Quem é? B Quem é que não gostaria?'
share this page

See Also: