E-Chords
Monchy y alexandra

Que tontos(Chords)

Monchy y alexandra

roll up this ad to continue

Key: B
Aquí les va el Intro y la parte del medio de la canción. Si  
utilizan Chorus como efecto suena muy bien. En la parte  Donde  
especifica B(x3)   Cm(x3)  siginifica  los acordes octaveados  
de Si mayor y Do menor respectivamente, rasgueado tres veces  
de arriba hacia abajo. Si utilizan un efecto de eco o delay no  
necesitaran rasguear tres veces, al menos que no usen efecto o  
estan en acusticas.  Para los que saben bueno, ya saben pero  
para los que no, ésta era la explicación. 
 
                                               B(x3)                     B(x3) 
E--------------9-------------------------------7------------I 
B-----------9-----12-10-9----------------------7-------------I 
G--------9----------------------11-9-8-----------8-----------I 
D--11------------------------------------11---------9--------I 
A----------------------------------------------------9--------I 
E----------------------------------------------7-------------I 
 
 
				     Cm(x3) 
E-------7--11-9-7-------------------9-------------------------I 
B----7--------------10-9-7----------9-------------------------I 
G--8-------------------------9-8----9-------------------------I 
D-------------------------------------11---------------------I 
A-------------------------------------11---------------------I 
E-----------------------------------9--------------------------I 
 
                                              B(x3)                      B(x3) 
E--------------9-------------------------------7------------I 
B-----------9-----12-10-9----------------------7-------------I 
G--------9----------------------11-9-8-----------8-----------I 
D--11------------------------------------11--------9--------I 
A--------------------------------------------------9--------I 
E----------------------------------------------7-------------I 
 
 
				     Cm(x3) 
E-------7--11-9-7-------------------9-------------------------I 
B----7--------------10-9-7----------9-------------------------I 
G--8-------------------------9-8----9-------------------------I 
D--------------------------------------11---------------------I 
A--------------------------------------11---------------------I 
E-----------------------------------9--------------------------I 
 
 
E-----12-12-12-11-----------8--------11-11-11-9--------------9--I 
B--9--------------------9-----------9-------------------9-------I 
G---------------------8----8--------------------------9----9----I 
D--------------------------------------------------------------I 
A------------------------------------------------------I 
E-------------------------------------------------------I 
 
E-----12-12-12-11-----------8--------11-11-11-9----I 
B--9--------------------9-----------9-------------------I 
G---------------------8----8----------------------------I 
D--------------------------------------------------------I 
A--------------------------------------------------------I 
E--------------------------------------------------------I 
 
E----------------------------------------------------I 
B-10--9---------------------------------------------I 
G---------11-9-8------------------------------------I 
D------------------11-9-11--------------------------I 
A------------------------------------------------------I 
E------------------------------------------------------I 
 
       C#m                       B                    
EL TIEMPO NO A LOGRADO QUE TE OLVIDE 
                             C#m                        
NO A DADO LAS HUELLAS DE TU AMOR 
   A                                        B        
TODAVIA SIENTO EL SABOR DE TUS BESOS EN MI BOCA 
   E                           B           C#m                     
TODAVIA SIENTO TUS MANOS ACARISIANDOME LA PIEL 
          A      B    C#m              
Y YO NO QUIERO SEGUIR ASI 
A            Ab               C#m        
ESTANDO CON ELLA Y PENSANDO EN TI 
A                     B           
A MI ME ESTA PASANDO IGUAL 
    E         B      C#m                           
NO DEJO DE PENSAR EN TI   
    A                                 B        
EL DIA QUE ME LEVANTO CONTIGO EN LA CABEZA  
    E    B         C#m                                           
LO LLAMO POR TU NOMBRE 
         A      B     C#m                                  
Y YO NO QUIERO SEGUIR ASI 
A            Ab                C#m                                     
ESTANDO CON ELLA Y PENSANDO EN TI 
      C#m       C#m   C#m (X4)   B                                
QUE TONTOS,QUE LOCOS SOMOS TU Y YO 
              A             E                    
ESTANDO CON OTROS Y AMANDONOS 
       C#m                      B                                
QUE TONTOS,QUE LOCOS SOMOS TU Y YO 
              A      Ab      C#m                         
ESTANDO CON OTROS Y AUN AMANDONOS 
                              
SOLO 
 
                                              B(x3)                      B(x3) 
E--------------9-------------------------------7-------I 
B-----------9-----12-10-9----------------------7-------I 
G--------9----------------------11-9-8-----------8------I 
D--11------------------------------------11--------9--I 
A--------------------------------------------------9--I 
E----------------------------------------------7-------I 
 
 
				     Cm(x3) 
E-------7--11-9-7-------------------9---------------I 
B----7--------------10-9-7----------9---------------I 
G--8-------------------------9-8----9---------------I 
D--------------------------------------11-----------I 
A--------------------------------------11-----------I 
E-----------------------------------9----------------I 
 
                                                                    B(x3) 
E--------------9-------------------------------7------I 
B-----------9-----12-10-9----------------------7-------I 
G--------9----------------------11-9-8-----------8------I 
D--11------------------------------------11--------9---I 
A--------------------------------------------------9---I 
E----------------------------------------------7---------I 
 
 
				     Cm(x3) 
E-------7--11-9-7-------------------9------------------I 
B----7--------------10-9-7----------9------------------I 
G--8-------------------------9-8----9------------------I 
D--------------------------------------11--------------I 
A--------------------------------------11---------------I 
E-----------------------------------9---------------------I 
 
 
E-----12-12-12-11------------8--------11-11-11-9-----------9--I 
B--9--------------------9-----------9-------------------9-------I 
G---------------------8----8--------------------------9---9--I 
D------------------------------------------------------------I 
 
E-----12-12-12-11------------8--------11-11-11-9------------9---I 
B--9--------------------9-----------9-------------------9-----9-I 
G---------------------8----8--------------------------9----9----I 
D---------------------------------------------------------------I 
 
E----------9-----------------8---------------8------------------I 
B-----9------9----------9-------9-------9------9----------------I 
G--9----9-----------8-----8-----------8----8--------------------I 
D---------------------------------------------------------------I 
A---------------------------------------------------------------I 
E---------------------------------------------------------------I 
 
E----------9----------------9----------------8--------------8----I 
B-----9------9--------9------9---------9-------9--------9-----9--I 
G--9----9----------9----9----------8-----8-----------8----8------I 
D----------------------------------------------------------------I 
A----------------------------------------------------------------I 
E----------------------------------------------------------------I 
 
 
E----------------9-----------I 
B---------9------------------I 
G---9--------9---------------I 
D-----------------------------I 
A-----------------------------I 
E-----------------------------I 
 
 
E-----12-12-12-11---------8--------11-11-11-9----------9--I 
B--9--------------------9-----------9-------------------9--I 
G---------------------8----8--------------------------9----9-I 
D-------------------------------------------------------------I 
A-------------------------------------------------------------I 
E--------------------------------------------------------------I 
 
E-----12-12-12-11------------8--------11-11-11-9---I 
B--9--------------------9-----------9------------------I 
G---------------------8-----8--------------------------I 
D------------------------------------------------------I 
A------------------------------------------------------I 
E------------------------------------------------------I 
 
E----------------------------------------------------I 
B-10--9---------------------------------------------I 
G---------11-9-8------------------------------------I 
D------------------11-9-11--------------------------I 
A---------------------------------------------------I 
E---------------------------------------------------I 
 
 
         A      B      C#m           
Y YO NO QUIERO SEGUIR ASI 
A            Ab               C#m                         
ESTANDO CON ELLA Y PENSANDO EN TI 
A                      B        
A MI ME ESTA PASANDO IGUAL 
    E      B         C#m          
NO DEJO DE PENSAR EN TI                       
    A                                B        
EL DIA QUE ME LEVANTO CONTIGO EN LA CABEZA 
    E     B        C#m                         
LO LLAMO POR TU NOMBRE 
         A      B      C#m                    
Y YO NO QUIERO SEGUIR ASI 
 A           Ab               C#m                          
ESTANDO CON ELLA Y PENSANDO EN TI 
      C#m      C#m              B                                
QUE TONTOS,QUE LOCOS SOMOS TU Y YO 
             A             E           
ESTANDO CON OTROS Y AMANDONOS 
       C#m     C#m   C#m         B                               
QUE TONTOS,QUE LOCOS SOMOS TU Y YO 
             A       Ab        C#m         
ESTANDO CON OTROS Y AUN AMANDONOS 
A                            
TODAVIA NO ME ACOSTUMBRO 
                          B           
NI EL CAFE HECHO POR SUS MANOS 
         E                 
ME SABE MAL 
               C#m           
NO ES COMO EL TUYO 
 A                         B          
Y YO CUANDO SIENTO SUS CARICIAS 
             E      B      C#m          
CIERRO LOS OJOS Y PIENSO EN TI 
       C#m     C#m    C#m        B                               
QUE TONTOS,QUE LOCOS SOMOS TU Y YO 
             A              E      
ESTANDO CON OTROS Y AMANDONOS 
      C#m      C#m    C#m        B                                
QUE TONTOS,QUE LOCOS SOMOS TU Y YO 
             A       Ab       C#m                  
ESTANDO CON OTROS Y AUN AMANDONOS 
               
QUE TONTOS  
 
 
YO DIRIA QUE ESTÁ 100% ACERTADA. ESTA CANCIÓN SE LA DEDICO A TI  
?COSITA? QUE NO TE HE PODIDO OLVIDAR, TE AMO? 
share this page

See Also: