E-Chords
Moacyr Franco

Tudo Vira Bosta(Chords)

Moacyr Franco

roll up this ad to continue

Key: F
riff 1: 

 
                        F 
E|--------------------13------ 
B|--------------------13------ 
G|--------------------14------ 
D|--13--13--15--15----15------ 
A|--13--13--15--15----15------ 
E|--11--11--13--13----13------ 
riff 1 + F O ovo frito, o caviar e o cozido A buchada e o cabrito, O cinzento e o colorido A ditadura e o oprimido Prometido e não cumprido C E o programa do partido Bb riff 1 + F Tudo vira bosta riff 1 + F O vinho branco, a cachaça O chope escuro, O herói e o dedo-duro O grafite lá no muro, Seu cartão e seu seguro Quem cobrou ou pagou juro, C Meu passado e meu futuro Bb riff 1 + F Tudo vira bosta riff 2: (tocado 2x durante o refrão)
 
     F7           Eb7           Bb 
E|----------------------------------------------- 
B|----------------------------------------------- 
G|-------10-8--------8-6------------------------- 
D|-----8-----------6--------------8-6--------8-6- 
A|---8-----------6--------------8----------8----- 
E|----------------------------6----------6------- 
F7 Um dia depois Eb7 Bb Não me vire as costas F7 Salvemos nós dois Eb7 Bb Tudo vira bosta riff 1 + F Filé minhão, champinhão, Don Perrinhão, Salsichão, arroz, feijão Muçulmano e cristão, A Mercedes e o Fuscão A patroa do patrão, C Meu salário e meu tesão Bb riff 1 + F Tudo vira bosta riff 1 + F O pão-de-ló, brevidade da vovó, O fondue, o mocotó Paravarotti e xororó Minha eguinha pocotó Ninguém vai escapar do pó, C Sua boca e seu loló Bb riff 1 + F Tudo vira bosta F7 Um dia depois Eb7 Bb Não me vire as costas F7 Salvemos nós dois Eb7 Bb Tudo vira bosta F7 Um dia depois Eb7 Bb Não me vire as costas F7 Salvemos nós dois Eb7 Bb Tudo vira bosta riff 1 + F A rabada, o tutu, o frango assado, O jiló e o quiabo A prostituta e o deputado, A virtude e o pecado, Esse governo e o passado C Vai você que eu tô cansado Bb riff 1 + F Tudo vira bosta F7 Um dia depois Eb7 Bb Não me vire as costas F7 Salvemos nós dois Eb7 Bb Tudo vira bosta F7 Um dia depois Eb7 Bb Não me vire as costas F7 Salvemos nós dois Eb7 Bb Tudo vira bosta F7 Tudo vira bosta Eb7 Bb Tudo vira bosta F7 Tudo vira bosta Eb7 Bb Tudo vira bosta F Tudo vira bosta
share this page

See Also: