E-Chords
Ministério Exult

Máquina Do Tempo(Chords)

Ministério Exult

Key: Am
Violão 1 

       Am        F         C           G 
E|-------3-|-------3-|-------3-1-0-----------| 
B|---1-----|---1-----|---1---------3-1-0-----| 
G|-2---2---|---------|-0---0-------------0---| 
D|---------|-3---3---|-----------------------| 
A|---------|---------|-----------------------| 
E|---------|---------|-----------------------| 

Violão 2 

             Am                   F                C               G 
D#|---------------------|-----------------|-----------------|-----------------| 
A#|---------------------|-----------------|-----------------|-----------------| 
F#|---------------------|-----------------|-----------------|-----------------| 
C#|---------2---------2-|-------2-------2-|-------2-------2-|-0-2-0---0-2-0---| 
G#|-0--3--0---0--3--0---|---3-------3-----|---3-------3-----|-------3-------3-| 
D#|---------------------|-1---1---1---1---|-3---3---3---3---|-----------------| 
Am F C G Cada minuto aqui é uma chance de provar o que eu mais quero Am F C G E ainda se eu conseguisse uma máquina que parasse o tempo Am F C Você estaria ao meu alcance? G Não importa, eu te espero Am F C Se eu pudesse escrever a história das minhas horas G Uma a uma seria do seu lado Am F C Eu contaria todo dia uma história diferente G Eu criaria frases pra sempre F G Am Eu cantaria notas de clara esperança F G Am E seu sorriso viraria poesia Am F C G Cada minuto aqui é uma chance de provar o que eu mais quero Am F C G E ainda se eu conseguisse uma máquina que parasse o tempo Am F C Você estaria ao meu alcance? G Não importa, eu te espero Am F C Eu criaria uma ONG com seu nome G Eu tocaria acordeon na sua janela Am F Te pagaria um café na rue de La Paix C G Te compraria um imóvel no Mairie d'Issy Am F C Se eu tivesse o domínio do equilíbrio e pudesse voar, G te traria a lua Am F Dominaria o meu medo de altura C G e buscaria no espaço cada estrela F G Am Inverteria o princípio da inércia F G Am Eu encolheria a Terra e te daria Am F C G Cada minuto aqui é uma chance de provar o que eu mais quero Am F C G E ainda se eu conseguisse uma máquina que parasse o tempo Am F C Você estaria ao meu alcance? G Am F C G Não importa, eu te espero

roll up this ad to continue

share this page

See Also: