E-Chords
Messages to Bears

Mountains(Chords)

Messages to Bears

roll up this ad to continue

Key: D
Capo on 4th fret
Tuning: D A D F# A D (Open D) 

   


Guitar 1 and guitar 2: Acoustic Guitar 

Intro 

(Guitar 1) 

D|---------------------------------------------------------------------| 
A|---5---5---5---5---5---5---5---5---4---4---4---4---4---4---4---4-----| 
F#|----0---0---0---0---0---0---0---0---0---0---0---0---0---0---0---0---| 
D|---------------------------------------------------------------------| 
A|---------------------------------------------------------------------| 
D|---------------------------------------------------------------------| 

D|---------------------------------------------------------------------------| 
A|---5---5---5---5---5---5---5---5---5/9---9---9---9---12---12---12---12-----| 
F#-----0---0---0---0---0---0---0---0-----0---0---0---0----0----0----0----0---| 
D|---------------------------------------------------------------------------| x2 
A|---------------------------------------------------------------------------| 
D|---------------------------------------------------------------------------| 


verse 1 x2 

Play both parts at the same time.  

(Guitar 1) 

D|---------------------------------------------------------------------| 
A|---5---5---5---5---5---5---5---5---4---4---4---4---4---4---4---4-----| 
F#|----0---0---0---0---0---0---0---0---0---0---0---0---0---0---0---0---| 
D|---------------------------------------------------------------------| 
A|---------------------------------------------------------------------| 
D|---------------------------------------------------------------------| 

D|---------------------------------------------------------------------------| 
A|---5---5---5---5---5---5---5---5---5/9---9---9---9---12---12---12---12-----| 
F#-----0---0---0---0---0---0---0---0-----0---0---0---0----0----0----0----0---| 
D|---------------------------------------------------------------------------|  
A|---------------------------------------------------------------------------| 
D|---------------------------------------------------------------------------| 

(Guitar 2) 

D|---0-------2-----0-------0-----0-------0-----0-------0--------| 
A|--------------------------------------------------------------| 
F#|------0-------0-----0-------0-----0-------0-----0-------0----| 
D|-----4-------4-----4-------4-----4-------4-----4-------4------| 
A|---2-----2-------2-----2-------2-----2-------2-----2----------| 
D|--------------------------------------------------------------| 

D|-----------2-----0-------0-------------0-------------0--------| 
A|---4---------------------------4-------------2----------------| 
F#|------0-------0-----0-------0-----0-------0-----0-------0----| 
D|-----4-------4-----4-------4-----4-------4-----4-------4------| 
A|---0-----0-------0-----0-------0-----0-------0-----0----------| 
D|--------------------------------------------------------------| 

D|---0-------2-----0-------0-----0-------0-----0-------0--------| 
A|--------------------------------------------------------------| 
F#|------0-------0-----0-------0-----0-------0-----0-------0----| 
D|-----4-------4-----4-------4-----4-------4-----4-------4------| 
A|---2-----2-------2-----2-------2-----2-------2-----2----------| 
D|--------------------------------------------------------------| 

D|-----------2-----0-------0-------------0-------------0--------| 
A|---4---------------------------4-------------2----------------| 
F#|------0-------0-----0-------0-----0-------0-----0-------0----| 
D|-----4-------4-----4-------4-----4-------4-----4-------4------| 
A|---0-----0-------0-----0-------0-----0-------0-----0----------| 
D|--------------------------------------------------------------| 


verse 2 x4 

(Guitar 2) 

D|---0-------2-----0-------0-----0-------0-----0-------0--------| 
A|--------------------------------------------------------------| 
F#|------0-------0-----0-------0-----0-------0-----0-------0----| 
D|-----4-------4-----4-------4-----4-------4-----4-------4------| 
A|---2-----2-------2-----2-------2-----2-------2-----2----------| 
D|--------------------------------------------------------------| 

D|-----------2-----0-------0-------------0-------------0--------| 
A|---4---------------------------4-------------2----------------| 
F#|------0-------0-----0-------0-----0-------0-----0-------0----| 
D|-----4-------4-----4-------4-----4-------4-----4-------4------| 
A|---0-----0-------0-----0-------0-----0-------0-----0----------| 
D|--------------------------------------------------------------| 


verse 3 x2 

(Guitar 1) 

D|---------------------------------------------------------------------| 
A|---5---5---5---5---5---5---5---5---4---4---4---4---4---4---4---4-----| 
F#|----0---0---0---0---0---0---0---0---0---0---0---0---0---0---0---0---| 
D|---------------------------------------------------------------------| 
A|---------------------------------------------------------------------| 
D|---------------------------------------------------------------------| 

D|---------------------------------------------------------------------------| 
A|---5---5---5---5---5---5---5---5---5/9---9---9---9---12---12---12---12-----| 
F#-----0---0---0---0---0---0---0---0-----0---0---0---0----0----0----0----0---| 
D|---------------------------------------------------------------------------|  
A|---------------------------------------------------------------------------| 
D|---------------------------------------------------------------------------| 

(Guitar 2) 

D|---0-------2-----0-------0-----0-------0-----0-------0--------| 
A|--------------------------------------------------------------| 
F#|------0-------0-----0-------0-----0-------0-----0-------0----| 
D|-----4-------4-----4-------4-----4-------4-----4-------4------| 
A|---2-----2-------2-----2-------2-----2-------2-----2----------| 
D|--------------------------------------------------------------| 

D|-----------2-----0-------0-------------0-------------0--------| 
A|---4---------------------------4-------------2----------------| 
F#|------0-------0-----0-------0-----0-------0-----0-------0----| 
D|-----4-------4-----4-------4-----4-------4-----4-------4------| 
A|---0-----0-------0-----0-------0-----0-------0-----0----------| 
D|--------------------------------------------------------------| 

D|---0-------2-----0-------0-----0-------0-----0-------0--------| 
A|--------------------------------------------------------------| 
F#|------0-------0-----0-------0-----0-------0-----0-------0----| 
D|-----4-------4-----4-------4-----4-------4-----4-------4------| 
A|---2-----2-------2-----2-------2-----2-------2-----2----------| 
D|--------------------------------------------------------------| 

D|-----------2-----0-------0-------------0-------------0--------| 
A|---4---------------------------4-------------2----------------| 
F#|------0-------0-----0-------0-----0-------0-----0-------0----| 
D|-----4-------4-----4-------4-----4-------4-----4-------4------| 
A|---0-----0-------0-----0-------0-----0-------0-----0----------| 
D|--------------------------------------------------------------| 


verse 4 x2 

(Guitar 1) 
D|---------------------------------------------------------------------| 
A|---5---5---5---5---5---5---5---5---4---4---4---4---4---4---4---4-----| 
F#|----0---0---0---0---0---0---0---0---0---0---0---0---0---0---0---0---| 
D|---------------------------------------------------------------------| 
A|---------------------------------------------------------------------| 
D|---------------------------------------------------------------------| 

D|---------------------------------------------------------------------------| 
A|---5---5---5---5---5---5---5---5---5/9---9---9---9---12---12---12---12-----| 
F#-----0---0---0---0---0---0---0---0-----0---0---0---0----0----0----0----0---| 
D|---------------------------------------------------------------------------|  
A|---------------------------------------------------------------------------| 
D|---------------------------------------------------------------------------| 


Verse 5 x2 

On the second repeat, fade out the second guitar. 

(Guitar 1) 

D|---------------------------------------------------------------------| 
A|---5---5---5---5---5---5---5---5---4---4---4---4---4---4---4---4-----| 
F#|----0---0---0---0---0---0---0---0---0---0---0---0---0---0---0---0---| 
D|---------------------------------------------------------------------| 
A|---------------------------------------------------------------------| 
D|---------------------------------------------------------------------| 

D|---------------------------------------------------------------------------| 
A|---5---5---5---5---5---5---5---5---5/9---9---9---9---12---12---12---12-----| 
F#-----0---0---0---0---0---0---0---0-----0---0---0---0----0----0----0----0---| 
D|---------------------------------------------------------------------------|  
A|---------------------------------------------------------------------------| 
D|---------------------------------------------------------------------------| 


(Guitar 2) 

D|---0-------2-----0-------0-----0-------0-----0-------0--------| 
A|--------------------------------------------------------------| 
F#|------0-------0-----0-------0-----0-------0-----0-------0----| 
D|-----4-------4-----4-------4-----4-------4-----4-------4------| 
A|---2-----2-------2-----2-------2-----2-------2-----2----------| 
D|--------------------------------------------------------------| 

D|-----------2-----0-------0-------------0-------------0--------| 
A|---4---------------------------4-------------2----------------| 
F#|------0-------0-----0-------0-----0-------0-----0-------0----| 
D|-----4-------4-----4-------4-----4-------4-----4-------4------| 
A|---0-----0-------0-----0-------0-----0-------0-----0----------| 
D|--------------------------------------------------------------| 

D|---0-------2-----0-------0-----0-------0-----0-------0--------| 
A|--------------------------------------------------------------| 
F#|------0-------0-----0-------0-----0-------0-----0-------0----| 
D|-----4-------4-----4-------4-----4-------4-----4-------4------| 
A|---2-----2-------2-----2-------2-----2-------2-----2----------| 
D|--------------------------------------------------------------| 

D|-----------2-----0-------0-------------0-------------0--------| 
A|---4---------------------------4-------------2----------------| 
F#|------0-------0-----0-------0-----0-------0-----0-------0----| 
D|-----4-------4-----4-------4-----4-------4-----4-------4------| 
A|---0-----0-------0-----0-------0-----0-------0-----0----------| 
D|--------------------------------------------------------------| 


Outro 

(Guitar 1) 

D|---------------------------------------------------------------------| 
A|---5---5---5---5---5---5---5---5---4---4---4---4---4---4---4---4-----| 
F#|----0---0---0---0---0---0---0---0---0---0---0---0---0---0---0---0---| 
D|---------------------------------------------------------------------| 
A|---------------------------------------------------------------------| 
D|---------------------------------------------------------------------| 

D|---------------------------------------------------------------------------| 
A|---5---5---5---5---5---5---5---5---5/9---9---9---9---12---12---12---12-----| 
F#-----0---0---0---0---0---0---0---0-----0---0---0---0----0----0----0----0---| 
D|---------------------------------------------------------------------------|  
A|---------------------------------------------------------------------------| 
D|---------------------------------------------------------------------------| 
share this page

See Also: