E-Chords
Meat Puppets

Vampires(Chords)

Meat Puppets

roll up this ad to continue

Key: D5
(intro) 

(riff 1) 
E|------------------------| 
B|-3---3----0---1---3-----| 
G|-2---2----2---0---2-----| 
D|-0---0----2---2---0-----| 
A|----------0---3---------| 
E|------------------------|
(verso) D5 D G D5 D AS im lying there, cold comforts G D5 D and blue D5 D G D5 D And the coloring, is G D5 (riff 1) from cold mirrors (Refrão) G5 F I see the candles ... on ..... G5 F I see the vampires.... D5 A C G Sha - king, Sha -king (2x)
(solo 2x) 
E|-----------------------------------------------------------------------------| 
B|--3--5--5/7---7------3--5/8--8--7----5^3---5^7--7-----3--5/8--8--7---5^7--3--| 
G|-----------------------------------------------------------------------------|
share this page

See Also: