E-Chords
Meat Puppets

The Spider And The Spaceship(Chords)

Meat Puppets

roll up this ad to continue

Key: A

A 

A                            D       A 
I don't think too clearly on matters sincerely 
   D          A                      E 
And matters sincerely seem cloudy at best 
        A                             D                  A 
There's debate about the mascot for a building in the neighborhood 
    D         A           E            A 
And linoleum chickens are growing out west 

E                        D             A 
Which one is larger, the spider or the spaceship? 
E                              D                    E 
It's the question of the hour, if you know what I mean 
E                                D            A 
Which one is more powerful, the spider or the astronaut? 
D              A             F                         A 
In the  score left unsettled, it remains to be seen 


Let's ponder this question, why did I eat peanuts? 
Though pretty to look at, it's starting to seem 
That beautiful peanuts are there to be eaten 
May somehow not fit into nature's great scheme 

Which one is larger, the spider or the spaceship? 
It's the question of the hour, if you know what I mean 
Which one is more powerful, the spider or the astronaut? 
In the score left unsettled, it remains to be seen 

SOLO 

Mr. Saturday Night is a cowboy in a motorcar 
With a head full of answers to criminal schemes 
His daddy's in prison and his friends are all fuckers 
The car drinks petroleum, Mr. S runs on beans 

Which one is larger, the spider or the spaceship? 
It's the question of the hour, if you know what I mean 
Which one is more powerful, the spider or the astronaut? 
In the score left unsettled, it remains to be seen 

And which one is larger, the spider or the spaceship? 
It's the question of the hour, if you know what I mean 
Which one is more powerful, the spider or the astronaut? 
In the score left unsettled, it remains to be seen 


VERSE 

e|--------------------------------| 
b|--------------------------------| 
G|--------------------------------| 
D|--------------------------------| 
A|----0-2-4--5----5------7--------| 
E|-5-----------5----5--5---7------| 

e|--------------------------------| 
b|--------------------------------| 
G|--------------------------------| 
D|--------------------------------| 
A|---0-2-4--5---5---7-------------| 
E|-5----------5---5---5-5---------| 


Chorus 

e|------------------------------| 
b|------------------------------| 
G|------------------------------| 
D|------------------------------| 
A|-7---5-4-2-0--7----5-4-5-7----| 
E|---7------------7-------------| 

e|----------------------------------| 
b|----------------------------------| 
G|----------------------------------| 
D|----------------------------------| 
A|-7---5---5---------------7---7----| 
E|---7---5---5--1-1-1-1--5---5------| 


SOLO (there may be more to it than this 
      but the notes are too jumbled to 
      make out clearly) 

e|-7p5------7p5------10-------7p5---------| 
b|-----5---------5------10--------5-------| 
G|-------6---------6-------11-------6-----| 
D|----------------------------------------| 
A|----------------------------------------| 
E|----------------------------------------| 


e|-10-------5------7-----7----------| 
b|----10------5------9-----9--------| 
G|-------11-----6------9----9-------| 
D|----------------------------------| 
A|----------------------------------| 
E|----------------------------------| 
| / slide up | \ slide down | h hammer-on | p pull-off | ~ vibrato | + harmonic | x Mute note ===============================================================================
share this page

See Also: