E-Chords
Meat Puppets

Lamp(Chords)

Meat Puppets

roll up this ad to continue

Key: Em
(verso) 
 Em 
    Put off the light 
                            D 
 Draw the line at anything natural 
 Em 
    Flesh is fine 
                           D 
 Redefines the meaning of natural 
                 A       D   A       D 
 Nothing could own us 
 Em 
    Draw the wine 
                               D 
 Raise the glass to all the unnaturals 
 Em 
    Raise the glass 
                             D 
 Raise it high to all the unnaturals 
                 A       D   A       D 
 Nothing could own us 

(Refrão) 
 G 
   Rub your eyes 

------- 
------- 
------- 
-----0- 
-0^2--- 
------- 
 D 
   Sending it back 
                  F 
 Before where it came from 

------------       ------------ 
------------       ------------ 
------------       ------------ 
-2-3---3-2--       -3-2---2-3-- 
-2-3---3-2--       -3-2---2-3-- 
-0-1---1-0--       -1-0---0-1-- 

------------------- 
-7--8-7------------ 
---------9--7---5-- 
------------------- 
------------------- 
------------------- 

(verso) 
mesmos acordes 

Drop the lamp 
Try to find if anything's happening 
Drop the lamp 
Stumble to find if anything's happening 
There's nothing below us 

--------------------     -9---------9----------9---------9---9---- 
--------------------     ---10---10----10---10---10-10------------ 
-9\7-------11b12r11-     ------9----------9------------9---9---9-- 
--------------------     ----------------------------------------- 
--------------------     ----------------------------------------- 
--------------------     -----------------------------------------
share this page

See Also: