E-Chords
Mcfly

Transylvania(Chords)

Mcfly

Key: Em
Capo on 4th fret
 (All chords relative to capo) 



Organ Intro: (not relative to capo) 
|-11p9-11--9------------------| 
|------------12-11-9-8--9-----| 
|-----------------------------| 
|-----------------------------| 
|-----------------------------| 
|-----------------------------|
Verse: Em B Anne Boleyn she kept a tin, Em B Which all her hopes and dreams were in, C Am F# B She plans to run away with him, forever (never to be seen again) Em B Leaves a note and starts to choke, Em B And feel the lump that's in her throat, C Am F# It's raining and she leaves her coat in silence. B We're sorry but we disagree B The boy is vermin, can't you see? B We're drowning sins and misery B Ripping about the history {Chorus} Em Bm People marching to the drums, C G D Everybody's having fun to the sound of love, Em Bm Ugly is the world we're on Dm If I'm right and prove me wrong G I'm stunned (to find a place we belong) C G Who is your lover, Am I couldn't tell, G When hell freezes over, C That's when I tell, G Who is your lover, B I couldn't tell, Em When will this stop. Verse 2: Em B Racing, pacing in the dark, Em B She's searching for a lonely heart, C Am She finds him but his heart had stopped, F# She breaks down. B Sorry but your majesty, B Refusing orders from the queen B Has upset her monstrosity B Remembers a voice and hears him sing
Em Bm People marching to the drums, C G D Everybody's having fun to the sound of love, Em Bm Ugly is the world we're on Dm If I'm right and prove me wrong G I'm stunned (to find a place we belong
C G Who is your lover, Am I couldn't tell, G When hell freezes over, C That's when I tell, G Who is your lover, B I couldn't tell, Em When will this stop.
Guitar Solo: (No Capo) 
|----------------------------4-----------4---------4-----------------6-7-6---| 
|--------------------------4---7p4-----4---7p4--------7b9-7b9-7b9--9---------| 
|----------------------6b8---------6b8---------6b8---------------------------| 
|-6~--6~-6~-6~-6~-6\---------------------------------------------------------| 
|----------------------------------------------------------------------------| 
|----------------------------------------------------------------------------| 

|-7-7--6h7-9--7h9-9s11--9h11-11s12--11h12-12s14--12h14-14s16------16--18b19-18-18b19-| 
|--------------------------------------------------------------16-16-----------------| 
|------------------------------------------------------------------------------------| 
|------------------------------------------------------------------------------------| 
|------------------------------------------------------------------------------------| 
|------------------------------------------------------------------------------------| 


Harmonizing Riff: (No capo) 
|-12--14-16-14-16-14--11--14-16-14-16-14--12--14-16-14-16-14--------------| 
|-12--16-17-16-17-16--12--16-17-16-17-16--14--16-17-16-17-16--12-------11-| 
|----------------------------------------------------------------11-13----| 
|-------------------------------------------------------------------------| 
|-------------------------------------------------------------------------| 
|-------------------------------------------------------------------------| 

|-12--14-16-14-16-14--11--14-16-14-16-14--------15-----/19~---------------| 
|-12--16-17-16-17-16--12--16-17-16-17-16--16-16----16---------------------| 
|-----------------------------------------15-15---------------------------| 
|-------------------------------------------------------------------------| 
|-------------------------------------------------------------------------| 
|-------------------------------------------------------------------------|
Em People marching to the drums, C G D Everybody's having fun to the sound of love, Em Bm Ugly is the world we're on C If I'm right and prove me wrong G I'm stunned (to find a place we belong) C G Who is your lover, Am I couldn't tell, G When hell freezes over, C That's when I tell, {Repeat till the end} Em When will this stop! Legend: s - slide h - hammeron p - pulloff b - bend

roll up this ad to continue

share this page

See Also: