E-Chords
Mcfly

Silence Is A Scary Sound Live(Chords)

Mcfly

Key: E
McFly 
Silence Is A Scary Sound (live) 
Tuning: (EADGBE) Standard 
Transcribed by Soch H. 
For the verses, choruses, and bridges, you can play them as open chords or power chords. 

Intro:(0:08) 
|--------------------------------------------------------------| 
|--------------------------------------------------------------| 
|-9--9-9-9-9--9-9-9-9-9--10-10-10-10-10--12--12-12-12-12-12----| 
|-x--x-x-x-x--x-x-x-x-x--x--x--x--x--x----x---x--x--x--x--x----| 
|-7--7-7-7-7--7-7-7-7-7--8--8--8--8--8---10--10-10-10-10-10----| 
|--------------------------------------------------------------| (x2) 
Intro Riff: (0:17) 
|------------------------------------------------------------| 
|------------------------------------------------------------| 
|------------------------------------------------------------| 
|------6-4-----------------7-6~---6-4------------------------| 
|-7--7-----7-6-4--0-0-0-0-------7-----7-6-4p0-0-4p0-0-6--7~--| 
|------------------------------------------------------------| 
              PM|--------| 

|------------------------------------------------------------| 
|------------------------------------------------------------| 
|------------------------------------------------------------| 
|---6-4-----------------7-6~---6-4---------------------------| 
|-7-----7-6-4--0-0-0-0-------7-----7-6-4p0-0-4p0-0-0-0-4p0-0-| 
|------------------------------------------------------------| 
            PM|-------| 

|--------------| 
|--------------| 
|--------------| 
|--------------| 
|-4p0-0-6--7~--| 
|--------------|
VERSE 1 E G#m I look into the sky A And I have to ask why B She'd go and leave me E G#m Oh, why do feelings have to die A Is it all just a sign B Of what its meant to be
(Play this riff during Verse 1) 
|-16----16----16----16----16------14----14----14----14----14------| 
|---17----17----17----17----17------16----16----16----16----16----| 
|-----16----16----16----16----16------16----16----16----16----16--| 
|-----------------------------------------------------------------| 
|-----------------------------------------------------------------| 
|-----------------------------------------------------------------| 





|-12----12----12----12----12-------11----11----11----11----11-----| 
|---14----14----14----14----14-------12----12----12----12----12---| 
|-----14----14----14----14----14-------11----11----11----11----11-| 
|-----------------------------------------------------------------| 
|-----------------------------------------------------------------| 
|-----------------------------------------------------------------|
BRIDGE A B Well I'm just too excited E C#m The end of this can be sighted A B She's overdue for a breakout G# C#m I better go, she blows my brains out A Silence is a scary sound CHORUS E G#m C#m A Funny feeling happened today E G#m A B Someone buried in the past E G#m C#m A Didn't mean much that much anyway E G#m A B E I know the love will never last VERSE 2 E G#m I'm torn up inside A There's a hole on my mind B When you're not next to me E G#m So I hope you choke and die A On every single lie B Let you feel what you've done to me BRIDGE A B Well I'm just too excited E C#m The end of this can be sighted A B She's overdue for a breakout G# C#m I better go, she blows my brains out A Silence is a scary sound CHORUS E G#m C#m A Funny feeling happened today E G#m A B Someone buried in the past E G#m C#m A Didn't mean much that much anyway E G#m A B E I know the love will never last
Guitar solo: (2:02) 
|---------------------------------------------------------------| 
|---------------------------------------------------------------| 
|-6-6-6-6-6-6s13--13-13-13-13---4-4-4-4-4-4-4s11--11-11-11-11---| 
|-x-x-x-x-x-x--x---x--x--x--x---x-x-x-x-x-x-x--x---x--x--x--x---| 
|-4-4-4-4-4-4s11--11-11-11-11---2-2-2-2-2-2-2s=9---9--9--9--9---| 
|---------------------------------------------------------------| 




|--------------------------------------------------| 
|--------------------------------------------------| 
|-6-6-6-6--6s8-8-8--4s9-9-9--9s11-11-11-13-13-13-13| 
|-x-x-x-x--x-x-x-x--x-x-x-x--x-x--x--x---x--x--x--x| 
|-4-4-4-4--4s6-6-6--6s7-7-7--7s9--9--9--11-11-11-11| 
|--------------------------------------------------| 

|----------------------------------------------------------------------------| 
|----------------------------------------------------------------------------| 
|-14-13-11-9---6-6-6-6-6-6s13--13-13-13-13---4-4-4-4-4-4-4s11--11-11-11-11---| 
|-x--x--x--x---x-x-x-x-x-x--x---x--x--x--x---x-x-x-x-x-x-x--x---x--x--x--x---| 
|-12-11-9--7---4-4-4-4-4-4s11--11-11-11-11---2-2-2-2-2-2-2s=9---9--9--9--9---| 
|---------------------------------------------------------------------------|- 

|---------------------------------------------------| 
|---------------------------------------------------| 
|-6-6-6-6-6-6-6-6--8-8-8-8-8-8-8-8--9-9-9-9-9-9-9-9-| 
|-x-x-x-x-x-x-x-x--x-x-x-x-x-x-x-x--x-x-x-x-x-x-x-x-| 
|-4-4-4-4-4-4-4-4--6-6-6-6-6-6-6-6--7-7-7-7-7-7-7-7-| 
|---------------------------------------------------| 

|--------------------------------| 
|--------------------------------| 
|-14-14-14-14-14-14-14-14-14-----| 
|--x--x--x--x--x--x--x--x--x-----| 
|-12-12-12-12-12-12-12-12-12-----| 
|--------------------------------|
A B Well I'm just too excited E C#m The end of this can be sighted A B She's overdue for a breakout G# C#m I better go, she blows my brains out A Silence is a scary sound Chorus x2
(3:04) 
|--------------------------------------------------------------| 
|--------------------------------------------------------------| 
|-9--9-9-9-9--9-9-9-9-9--10-10-10-10-10--10--10-10-10-10-10----| 
|-x--x-x-x-x--x-x-x-x-x--x--x--x--x--x----x---x--x--x--x--x----| 
|-7--7-7-7-7--7-7-7-7-7--8--8--8--8--8----8---8--8--8--8--8----| 
|--------------------------------------------------------------| 
  
|--------------| 
|--------------| 
|-------6------| 
|-2--6--6--7---| 
|-2--6--4--7---| 
|-0--4-----5---|

roll up this ad to continue

share this page

See Also: