E-Chords
Mcfly

She Loves You(Chords)

Mcfly

Key: Em
Guitar Fill 1 
E|---------------------------------| 
B|---------------------------------| 
G|-3-------3-5/6/5--3--------------| 
D|-3-------3-5/6/5--3-----3--------| 
A|-----5-----------------5---------| 
E|---------------------------------| 

Guitar Fill 2 
E|-3----------2------0-------------| 
B|-0----------0------0-------------| 
G|-0----------0------0-------------| 
D|-5----------4------2-------------| 
A|---------------------------------| 
E|---------------------------------| 

Guitar Fill 3 
E|------------| 
B|------------| 
G|------------| 
D|----0-------| 
A|------------| 
E|-3-----2--0-| 

Outro 
  'yeah yeah yeah..' 
   Em             C           G6 
E|-3~--2~--0~-----3~--2~--0~--------| 
B|-2~--2~--2~-----1~--1~--1~---1p0~-| 
G|-0~--0~--0`-----0~--0~--0~-----0~-| 
D|----------------------------------| 
A|----------------------------------| 
E|----------------------------------|
Intro Chorus Em A7 She loves you, yeah, yeah, yeah, She loves you, yeah, yeah, yeah, C G Guitar Fill 1 She loves you, yeah, yeah, yeah, yeah G Em7 Bm D You think you lost your love, well, I saw her yesterday G Em7 Bm D It's you she's thinking of and she told me what to say G Gmaj7 G6 Em7 Gtr. Fill 2 She said she loves you and you know that can't be bad Cm D Gtr. Fill 1 Yes she loves you and you know you should be glad G Em7 Bm D She said you hurt her so, she almost lost her mind G Em7 Bm D But now she said she knows you're not the hurting kind G Gmaj7 G6 Em7 Gtr. Fill 2 She said she loves you and you know that can't be bad Cm D Yes she loves you and you know you should be glad Ooh Chorus Em She Loves You yeah, yeah, yeah, A7 She Loves You yeah, yeah, yeah, Cm D G Gtr Fill 1 With a love like that, you know you should be glad G Em7 Bm D You know it's up to you, I think it's only fair G Em7 Bm D Pride can hurt you too Apologize to her G Gmaj7 G6 Em7 Gtr. Fill 2 Because she loves you and you know that can't be bad Cm D Yes she loves you and you know you should be glad Ooh Chorus Em A7 She Loves You Yeah, Yeah, Yeah, She Loves You Yeah, Yeah, Yeah Cm D G Em With a love like that you know you should be glad Gtr. Fill 3 Cm D G Em With a love like that you know you should be glad Gtr. Fill 3 Cm D7 G With a love like that you know you should be glad Gtr. Fill 2 G Em C G6 Yeah, Yeah, Yeah, Yeah, yeah, yeah, yeah Outro

roll up this ad to continue

share this page

See Also: