E-Chords
Mcfly

Ive Got You Intro(Chords)

Mcfly

Key: A
I've Got You 
Transcribed by Soch H. 
Tuning: EADGBE 

Main Riff: 
|-----7-7-----4-4-----5-5---------| 
|-----7-7-----4-4-----5-5---------| 
|-9---8-8-----4-4-----6-6---------| 
|-9---9-9-----6-6-----7-7---------| 
|-7-------------------------------| 
|---------------------------------|(x3) 

|-----7-7--------------| 
|-----7-7-----x-------| 
|-9---8-8-----x-------| 
|-9---9-9-----x-------| 
|-7--------------------| 
|----------------------| 

|-----7-7-----4-4-----5-5---------| 
|-----7-7-----4-4-----5-5---------| 
|-9---8-8-----4-4-----6-6---------| 
|-9---9-9-----6-6-----7-7---------| 
|-7-------------------------------| 
|---------------------------------|(x4)
A E The world would be a lonely place A E Without the one that puts a smile on your face A E So hold me 'til the sun burns out A B I won't be lonely when I'm down (Play the main riff here:) 'Cause I've got you to make me feel stronger When the days are rough and an hour feels much longer A E I never doubted you at all A E If stars collide, will you stand by and watch them fall? A E So hold me 'til the sky is clear A B And whisper words of love right into my ear (Main Riff:) 'Cause I've got you to make me feel stronger When the days are rough and an hour feels much longer Yeah when I got you Oh to make me feel better When the nights are long they'll be easier together Bm E Looking in your eyes Bm G Hoping they won't cry Em A And even if you do F#m G A D I'll be in bed so close to you G Hold you through the night Em A And you'll be unaware F#m G A B But if you need me I'll be there (Main Riff) Yeah I got you Oh to make me feel stronger When the days are rough and an hour feels much longer Yeah when I got you to make me feel better When the nights are long they'll be easier together Oh when I got you

roll up this ad to continue

share this page

See Also: