E-Chords
Mcfly

I've Got You(Chords)

Mcfly

Key: A
Intro: 
  
 Riff 1 : 
e|-----7-7-----4-4-----5-5---------| 
B|-----7-7-----4-4-----5-5---------| 
G|-9---8-8-----4-4-----6-6---------| 
D|-9---9-9-----6-6-----7-7---------| 
A|-7-------------------------------| 
E|---------------------------------|(x3) 

e|-----7-7--------------|  
B|-----7-7-----x\-------| 
G|-9---8-8-----x\-------| 
D|-9---9-9-----x\-------|      Toque o riff 1 e o riff 2 logo em seguida. 
A|-7--------------------| 
E|----------------------| 

Riff 2: 
e|-----7-7-----4-4-----5-5---------| 
B|-----7-7-----4-4-----5-5---------| 
G|-9---8-8-----4-4-----6-6---------| 
D|-9---9-9-----6-6-----7-7---------| 
A|-7-------------------------------| 
E|---------------------------------|
(x4) A E The world would be a lonely place A B C#m B C#m Without the one that puts a smile on your face A C#m So hold me 'til the sun burns out A F#m B I won't be lonely when I'm down (Toque o Riff 2 da intro aqui:) 'Cause I've got you to make me feel stronger When the days are rough and an hour feels much longer A E I never doubted you at all A B C#m B C#m If stars collide, will you stand by and watch them fall? A C#m So hold me 'til the sky is clear A F#m B And whisper words of love right into my ear (Toque o Riff 2:) 'Cause I've got you to make me feel stronger When the days are rough and an hour feels much longer (Riff 2:) Yeah when I got you Oh to make me feel better When the nights are long they'll be easier together Bm E Looking in your eyes Bm G Hoping they won't cry Em A And even if you do F#m G A D I'll be in bed so close to you G Hold you through the night Em A And you'll be unaware F#m G A B But if you need me I'll be there (Toque o Riff 1 e 2) Yeah I got you Oh to make me feel stronger When the days are rough and an hour seems much longer (Riff 2:) Yeah when I got you to make me feel better When the nights are long they'll be easier together Oh when I got you

roll up this ad to continue

share this page

See Also: