E-Chords
Mcfly

Dragon Ball(Chords)

Mcfly

Key: B
 
E|---2-2-------0---------2-2-0-------------7--2-2--------------2-2-0-----| 
B|------------4--4-2-0------------5-4-2-0------------5-4-2-0-------------| 
G|-4---------4-----------------------------------------------------------| 
D|----------4----------4-------------------------------------4-----------| 
A|-----------------------------------------------------------------------| 
E|-----------------------------------------------------------------------|
B F# Picking up the pieces of my heart left on the floor G#m E Like it was written in the stars that I was meant for something more Em B G#m Now I'm a one-man army fighting everybody's war F# Will I survive? I must survive... B F# The world is on my shoulders so much pressure to prevail G#m E This is the story of my life and it's a sad and lonely tale Em B G#m So what's the point in trying if your destiny's to fail F# D# You won't survive, but I must survive E B F# G#m F# G#m I'm on the run from everyone where moons and suns collide E B F# D# My back's up against the wall I'll never fall When I find all the dragon balls B F# Nights are long and restless danger's always somewhere near G#m E And I'm not saying I'm a hero but I'm prepared to face the fear Em B G#m We will send the evil running When they hear my army cheer F# D# We will survive 'cuz we will survive E B F# G#m F# G#m I'm on the run from everyone where moons and suns collide E B F# D# My back's up against the wall I'll never fall When I find all the dragon balls B F# G#m E Evil's not forgiving we will never give in until we're not living Can you hear me? Evil's not forgiving we will never give in until we're not living Can you hear me? (2x) E B F# G#m F# G#m I'm on the run from everyone where moons and suns collide E B F# D# My back's up against the wall I'll never fall When I find all the dragon balls
E|---2-2-------0---------2-2-0-------------7--2-2--------------2-2-0-----| 
B|------------4--4-2-0------------5-4-2-0------------5-4-2-0-------------| 
G|-4---------4-----------------------------------------------------------| 
D|----------4----------4-------------------------------------4-----------| 
A|-----------------------------------------------------------------------| 
E|-----------------------------------------------------------------------| 

roll up this ad to continue

share this page

See Also: