E-Chords
Mcfly

Deck The Halls(Chords)

Mcfly

Key: G
G                     C              G    D    G 
|-10--8-7---------7-----10s12-12-12-12-10--8-7------| 
|---------10-8-10---8--------------------------10-8~| 
|---------------------------------------------------| 
|---------------------------------------------------| 
|---------------------------------------------------| 
|---------------------------------------------------|
G Deck the halls with boughs of holly C G D G Fa la la la la la la la la G Tis the season to be jolly C G D G Fa la la la la la la la la D G D Don we now our gay apparel G Em D Fa la la la la la la la la G Troll the ancient Yuletide carol C G D G Fa la la la la la la la la G See the blazing yule before us C G D G Fa la la la la la la la la G Stride the harp and join the Chorus C G D G Fa la la la la la la la la D G D Follow me in merry measure G Em D Fa la la la la la la la la G While I tell of yuletide treasure C G D G Fa la la la la la la la la
   G                     C              G    D    G 
|-10--8-7---------7-----10s12-12-12-12-10--8-7------| 
|---------10-8-10---8--------------------------10-8~| 
|---------------------------------------------------| 
|---------------------------------------------------| 
|---------------------------------------------------| 
|---------------------------------------------------|
G Fast away the old year passes C G D G Fa la la la la la la la la G Hail the new year lads and lasses C G D G Fa la la la la la la la la D G D Sing we joyous all together G Em D Fa la la la la la la la la G Heedless of the wind and weather C G D G Fa la la la la la la la la
   G 
|-10--8-7---------7----| 
|---------10-8-10---8--| 
|----------------------| 
|----------------------| 
|----------------------| 
|----------------------|
C G D G FA LA LA LA LA LA LA LA LA G MERRY CHRISTMAS!

roll up this ad to continue

share this page

See Also: