E-Chords
Mcfly

5 Colours In Her Hair - Us Version(Chords)

Mcfly

Key: G
- Intro part 1:  

Guitar II: 
|-------------------------------------------------------------| 
|-------------------------------------------------------------| 
|-------------------------------------------------------------| 
|----------------------3-4-5555555555555555-------------------| 
|---------1-2-3-1-3--5----------------------------------------| 
|-3-1-3-3-----------------------------------------------------| 


Guitar I: 
|---------------------------------------------------------------------------| 
|---------------------------------------------------------------------------| 
|--------------------------12-12-12-12-12-12-12-12-12-12-12-12-12-12-12-12--| 
|--------------------------x--x--x--x--x--x--x--x--x--x--x--x--x--x--x--x---| 
|--------------------------10-10-10-10-10-10-10-10-10-10-10-10-10-10-10-10--| 
|---------------------------------------------------------------------------| 



- Intro part 2:  


Guitar II: 
|------------------------------------------------------------------------------------------------------| 
|------------------------------------------------------------------------------------------------------| 
|------------------------------------------------------------------------------------------------------| 
|----------------------3-4-5-5-3-5-3---------------3-4-5-5-3-3h5-3-------------------------------------| 
|---------1-2-3-1-3--5---------------5-4-3--1-3--5-----------------5-4-3--1-3--1-3-4-5555555555555555--| 
|-3-1-3-3----------------------------------------------------------------------------------------------| 


Guitar I: G5 G5 C5 C5 G5 G5 C5 C5 
          G5 G5 C5 C5 D5 D5 D5 D5 



- Intro part 3: 


Guitar II: 
|------------------------------------------------------------------------------------------------------| 
|------------------------------------------------------------------------------------------------------| 
|------------------------------------------------------------------------------------------------------| 
|----------------------3-4-5-5-3-5-3---------------3-4-5-5-3-3h5-3-------------------------------------| 
|---------1-2-3-1-3--5---------------5-4-3--1-3--5-----------------5-4-3--1-3--1-3-4-5555555555555555--| 
|-3-1-3-3----------------------------------------------------------------------------------------------|
Guitar I: G5 C5 Do do do do do do G5 C5 Do do do do do do G5 C5 D5 G5 Do do do do do do - verse 1: (Both Guitars) G5 F5 G5 F5 G5 She's got a lip ring and five colours in her hair G5 F5 D5 Not into fashion but I love the clothes she wears Guitar I G5 F5 G5 Her tattoos always hidden by her underwear Guitar II: (Play before 'her tattoos') |-------------------------------------------------------| |-------------------------------------------------------| |--12-12-12-12---12-12-12-12--10-10-10-10--12-12-12-12--| |--x--x--x--x----x--x--x--x---10-10-10-10--12-12-12-12--| |--10-10-10-10---10-10-10-10---8--8--8--8--10-10-10-10--| |-------------------------------------------------------| (Both Guitars) C5 D5 But she don't care
G5 E5 C5 D5 Everybody wants to know her name G5 E5 C5 D5 I threw a house party and she came C5 D5 Everyone asked me B5 E5 Who the hell is she? C5 D5 G5 That weirdo with five colours in her hair
- Post-Chorus: (Both Guitars) G5 G5 D/F#5 G5 G5 G5 D/F#5 G5 - verse 2: (Both Guitars) G5 F5 G5 F5 G5 She's just a loner with a sexy attitude G5 F5 D5 And I'd like to bone her 'cause she puts me in the mood Guitar I G5 The rumours spreading round F5 G5 That she cooks in the nude Guitar II:
|-------------------------------------------------------| 
|-------------------------------------------------------| 
|--12-12-12-12---12-12-12-12--10-10-10-10--12-12-12-12--| 
|--x--x--x--x----x--x--x--x---10-10-10-10--12-12-12-12--| 
|--10-10-10-10---10-10-10-10---8--8--8--8--10-10-10-10--| 
|-------------------------------------------------------|
C5 D5 But she dont care, she don't care
G5 E5 C5 D5 Everybody wants to know her name G5 E5 C5 D5 I threw a house party and she came C5 D5 Everyone asked me B5 E5 Who the hell is she? C5 D5 G5 D/F#5 E5 That weirdo with five colours in her hair
- Bridge E5 A5 She was all I thought about G5 F5 The girl I couldnt live without - Guitar I F5 G5 But then she went insane Guitar II (play in 'but then') |------| |------| |--10--| |--x---| |--8---| |------| - Bridge Part 2: (Only guitar II. Guitar I rest) She couldn't take the fame She said I was to blame She had enough and shaved five colours off And now... Shes just a weirdo with no name Guitar II (After she went insane...)
|-------------------------------------| 
|-8-8-8-7-7-7-7-7h8-10-10-10-8-8-8-7--| 
|-7-7-7-7-7-7-7-7----7--7--7-7-7-7-7--| 
|-------------------------------------| 
|-------------------------------------| 
|-------------------------------------| 

|-------------------------------------------------------------------| 
|-8-8-8-7-7-7-7-7h8-10-10-10-8-8--7==s5-5--3---3s4--5=s7--8---7---5-| 
|-7-7-7-7-7-7-7-7----7--7--7-7--------------------------------------| 
|-------------------------------------------------------------------| 
|-------------------------------------------------------------------| 
|-------------------------------------------------------------------| 

|-----------15-----| 
|-15---------------| 
|------------------| 
|------------------| 
|------------------| 
|------------------| 



- Interlude: (Guitar I)  
|------------------------------------------------------------------------------------------------------| 
|------------------------------------------------------------------------------------------------------| 
|------------------------------------------------------------------------------------7777777777777777--| 
|----------------------3-4-5-5-3-5-3---------------3-4-5-5-3-3h5-3-------------------7777777777777777--| 
|---------1-2-3-1-3--5---------------5-4-3--1-3--5-----------------5-4-3--1-3--1-3-4-5555555555555555--| 
|-3-1-3-3----------------------------------------------------------------------------------------------|
G5 E5 C5 D5 Everybody wants to know her name G5 E5 C5 D5 How does she cope with her new found fame?
Guitar I C5 D5 Everyone asked me B5 E5 Who the hell is she? C5 D5 G5 That weirdo with five colours in her hair - Ending:
Guitar II: 
|--------------------------------------------------------------------------------------------------| 
|--------------------------------------------------------------------------------------------------| 
|--------------------------------------------------------------------------------------------7-12--| 
|----------------------3-4-5-5-3-5-3---------------3-4-5-5-3-3h5-3---------------------------x-x---| 
|---------1-2-3-1-3--5---------------5-4-3--1-3--5-----------------5-4-3--1-3--1-3-4---------5-10--| 
|-3-1-3-3----------------------------------------------------------------------------3-------------|
Guitar I: G5 C5 Do do do do do do G5 C5 Do do do do do do G5 C5 G5 D5 G5 Do do do do do do

roll up this ad to continue

share this page

See Also: